Oops, an error
Loading. Please wait.

Stairs tab

34 views 3 this week
no commentswrite comment
1 2 3 4 5
3 more votes to show rating
add to favorites
×
Save as Personal and add changes to this tab that will be seen only by you. Learn more ›
×
You can save this tab as Personal to edit and correct it or add notes. All changes will be seen only by you. Learn more »
launch autoscroll
font size
0
reset
how to read this tab
guitar tuner
edit
Autoscroll
slow
fast
+/-
esc
set tempo
stop
Weeping Willows - Stairs
No Capo.
Tuning: standard.


Chord's diagrams:

Fm  133111
G#  466544
D#  x68886
C#  x46664
C#m x46654
Cm  x35543
C   x35553


[Intro/Verse]

Fm G# 
D# D# 
C# C#m
Cm C


     Fm                  G#
e|------------------------------------------|
B|------9---------9--------9--------9-------|
G|---10--10----10--10----8---8----8---8-----| 
D|----------10--------10-------10-------10--| 
A|------------------------------------------|
E|------------------------------------------|

     D#                D#
e|------------------------------------------|
B|-----8--------8--------8--------8---------| 
G|---8---8----8---8----8---8----8---8-------|
D|---------10-------10-------10-------10----|
A|------------------------------------------|
E|------------------------------------------|

     C#                  C#m
e|------------------------------------------|
B|------9---------9--------9--------9-------|
G|---10--10----10--10----9---9----9---9-----|
D|----------10--------10-------10-------10--|
A|------------------------------------------|
E|------------------------------------------|

     Cm                C 
e|------------------------------------------|
B|-----8--------8--------8--------8---------|
G|---8---8----8---8----9---9----9---9-------| 
D|---------10-------10-------10-------10----| 
A|------------------------------------------|
E|------------------------------------------|


Lyrics:


[Verse 1]

What will happen when I die? 
Will I pay for all my crimes? 
Cause sometimes I did fail 
Although I tried to try 
Will you remember me this way? 
Or will the picture change? 
ItВґs too late to go back 
ItВґs much too late 


[Chorus]

When I was young I didnВґt care 
I was busy crawling down the stairs 


[Verse 2]

With a voice I thought was mine 
I didnВґt sing, I mimed 
To words that almost rhymed 
Well, those were confusing times 
Will you remember me this way? 
Or will the picture change? 
It's too late to go back 
It's much too late 


[Chorus]

When I was young I didnВґt care 
I was busy crawling down the stairs 


[Verse 3]

Please don't forget 
Me when I'm gone 
'Cause my life must have some worth 
And please forget, 
Me if I'm wrong 
'Cause I didn't mean to be 
All wrong 
I didn't mean to be 
No, I didn't mean to be 
I didn't mean to be 
All wrong. 
I didn't mean to be. 
I didn't mean to be 
No, I didn't mean to be.

            
            
Suggest correction
Creating personal tab
Creating personal tab
You can edit any tab online and save it as your Personal.

You can edit, replace or remove any tab part or add personal notes – all changes will be seen only by you.

Personal tabs can be accessed anytime from any device, even offline.
Learn more »
Give kudos to tab author, rate the tab!
1 2 3 4 5
comments
print report bad tab
guest
You may want to rate the tab now too:
select rating
Wanna post a correction for this tab? Suggest correction