Oops, an error
Loading. Please wait.

Across The Sea Tab

version 1
version 1

Whole song

Interactive

34,708 views 15 this week
4 commentsread comments
1 2 3 4 5
x 8
add to favorites
launch autoscroll
font size
0
reset
how to read this tab
guitar tuner
Autoscroll
slow
fast
+/-
esc
set tempo
stop
Help us to improve Ultimate-Guitar.com Take our survey!
×
Tuning
D# G# C# F# A# D#
weezer
across the sea
album: pinkerton
submitted by m. burgess
tuning: 1/2 step down

[Intro]
   and this is how you would play it on the guitar
D#|---3-2-0-----------------------------------------|
A#|----------3----0---------------------------------|
F#|-0----------------------------0---------4--------|
C#|------------------0-----2-0-0-----------5--------|
G#|----------------------3-----------------5--------|
D#|----------------------------------------3--------| (add heavy distortion)

[Verse]
G          B     E              D
You are an eighteen year old
    G                B           C       D
girl  who lives in the small city of Japan
G             B         E             D
   You heard me on the radio
    G             B         C             D
About one year ago and you wanted to know
G           B         E               D
   All about me and my hobbies
G          B           E               D
  My favorite food and my birthday

[Chorus]
G                 B          E               D/B
   Why are you so far a  way from me?
G             B                 E                  D
   I need help   and your way accccross the sea
C

   All notes
D#|-12-12-12-12--12-12-12-12--12-12-12-12--12-12-12-12-|
A#|-13-13-13-13--13-13-13-13--13-13-13-13--13-13-13-13-|
F#|----------------------------------------------------|
C#|----------------------------------------------------|
G#|----------------------------------------------------|
D#|----------------------------------------------------|
               I         could neeeeeeeeeeeeeeeever

                                      B
D#|-10-10-10-10--10-10-10-10--10-10-10-10--10-10-10-10-|
A#|-12-12-12-12--12-12-12-12--12-12-12-12--12-12-12-12-|
F#|----------------------------------------------------|
C#|----------------------------------------------------|
G#|----------------------------------------------------|
D#|----------------------------------------------------|
             touch youuuuuu

D#|----------------------------------------|
A#|-1-1-1-1--1-1-1-1--1-1-1-1--1-1-1-1-1---|
F#|----------------------------------------|
C#|----------------------------------------|
G#|----------------------------------------|
D#|----------------------------------------|
    I think it would be wrong         oh

D#|-----------------------------------------------------------------------------------|
A#|-----------------------------------------------------------------------------------|
F#|----------------------------7--7--5---5--------7----7------------------------------|
C#|-5----5-----5---5-----2-2---7--7--5---5--------7----7----5-----5-----5------5------|
G#|-5----5-----5---5-----2-2---5--5--3---3--------5----5----5-----5-----5------5------|
D#|-3----3-----2---2-----0-0--------------------------------3-----3-----3------3------|
         I've got your letter              You've got my song

[Riff A]
    E             D           C            B
D#|-------------------------------------------|
A#|-0-0-0-0--0-0-0-0--0-0-0-0--0-0-0-0--------|
F#|-------------------------------------------|
C#|-------------------------------------------|
G#|-------------------------------------------|
D#|-------------------------------------------|

   A              A               A                A
D#|-/15-15-15-15-15-15-15-15-15-15-15-15--14----14----14----14-|
A#|------------------------------------------15----15----15----|
F#|------------------------------------------------------------|
C#|------------------------------------------------------------|
G#|------------------------------------------------------------|
D#|------------------------------------------------------------|

[Verse]
G                      B    E           D
They don't make stationary like
  G                         B           C          D
this where I'm from so fragile, so refined
G           B        E          D
    So I sniff           and I lick
                     (So I snare)                (and I lick)
G                    B               C               D
    Your envelope and fall to little pieces every
G         B                     C                   D
time I wonder what clothes you wear to
    G          B                             C      D
school. I wonder how you decorate your
   G          B            C           D
room   I wonder how you touch yourself and
    G            B            C         D   (play fill 1)
curse myself for being across the sea

   [Filll 1]
D#|---------|
A#|---------|
F#|---------|
C#|---------|
G#|---------|
D#|-0-2-0---|

[Chorus]

[Solo]
Fixed from the previous version. May not be completely right, but
it's a helluva lot closer than the last one.
A#        A           G                F              D#                   E#         G       D
D#|-6-6-6-8-8-8---10-10-15-15-15-13-13-13----10-10-10-10-10-10-8-8-8-8-8-8-6-6-6-6-/6-6-6-5-5-5-------|
A#|--------------------------------------------------------------------------------------------6-6----|
F#|-3-3-3-5-5-5----7--7-12-12-12-10-10-10-----7--7--7--7--7--7-5-5-5-5-5-5-3-3-3-3--------------------|
C#|---------------------------------------------------------------------------------------------------|
G#|---------------------------------------------------------------------------------------------------|
D#|---------------------------------------------------------------------------------------------------|
 
  G          D
D#|-/------------------^-------------------------------------|
A#|--8-8-8--------6-----15-13-13-13-13--13------13---13-15b--|
F#|--------7-7-7----------------------------15-------15-15---|
C#|----------------------------------------------------------|
G#|----------------------------------------------------------|
D#|----------------------------------------------------------|

D#|---------------------------------------------------^---------|
A#|---8-8-8-7-7-7-------7-7-7-8-8-10-12-10-10-10-10---10-----10-|
F#|----------------7-7------------------------------------12----|
C#|-------------------------------------------------------------|
G#|-------------------------------------------------------------|
D#|-------------------------------------------------------------|

D#|-----------------------------------------------------|
A#|-/15-15-15-15-13-12-----------------12--14--14b--14--|
F#|---------------------13--13-13-13--------------------|
C#|-----------------------------------------------------|
G#|-----------------------------------------------------|
D#|-----------------------------------------------------|

D#|------------------------------------------------------|
A#|-------------------------------------------------(0)--|
F#|-13-13--11---11-11-11-11-11-11-11-11-13-13-11---------|
C#|------------------------------------------------------|
G#|------------------------------------------------------|
D#|------------------------------------------------------|

E         D#            C#       B                   A             G#    F#
At  ten I shaved my head and tried to be a monk
E         D#            C#       B                   A             G#    F#
I thought the older women would like me if i did
E           D#      C#             B                  A      G#           F#/G#
   You see mom    I'm a good little boy
                                                                 (good little boy)
E          D#          C#   B            A       G#          F#/G#   B
    It's all your fault   momma   It's all your fault

[Verse]
G          B              C                  D
Goddamn   This business is really lame
G            B                 C            D
  I gotta live on an island to find the juice
G                B                           E                D
  So you send                          me your love
                         (So you send)                  (me your love)
G                                    B                   C                             D
   From all around the world                          As if I could live on
                                           (from all around the                  world)
G                        B                C          D
Words and dreams and a million screams oh
E           B            C         D
How I need a hand in mine to feel

G                    B                  A                     E E  E  E   DDDDDD
     Why  are you so far away from me
G                    B                  A                     E E  E E E E E E E E
     Why  are you so far away from me
C

   All notes
D#|e-12-12-12-12--12-12-12-12--12-12-12-12--12-12-12-12-|
A#|b-13-13-13-13--13-13-13-13--13-13-13-13--13-13-13-13-|
F#|g----------------------------------------------------|
C#|d----------------------------------------------------|
G#|a----------------------------------------------------|
D#|e----------------------------------------------------|
               I         could neeeeeeeeeeeeeeeever

D#|e-10-10-10-10--10-10-10-10--10-10-10-10--10-10-10-10-|
A#|b-12-12-12-12--12-12-12-12--12-12-12-12--12-12-12-12-|
F#|g----------------------------------------------------|
C#|d----------------------------------------------------|
G#|a----------------------------------------------------|
D#|e----------------------------------------------------|
             touch youuuuuu

D#|e----------------------------------------|
A#|b-1-1-1-1--1-1-1-1--1-1-1-1--1-1-1-1-1---|
F#|g----------------------------------------|
C#|d----------------------------------------|
G#|a----------------------------------------|
D#|e----------------------------------------|
    I think it would be wrong         oh

D#|e---------------------------------------------------------------------------------|
A#|b---------------------------------------------------------------------------------|
F#|g---------------------------7--7--5---5--------7----7-----------------------------|
C#|d-5----5-----5---5-----2-2--7--7--5---5--------7----7----5-----5-----5------5-----|
G#|a-5----5-----5---5-----2-2--5--5--3---3--------5----5----5-----5-----5------5-----|
D#|e-3----3-----2---2-----0-0-------------------------------3-----3-----3------3-----|
         I've got your letter              You've got my song

D#|e-----------------------------------------------------------------|
A#|b-----------------------------------------------------------------|
F#|g---------------------------7--7--5------------7------------------|
C#|d-5----5-----5---5-----2-2--7--7--5------------7----------5-------|
G#|a-5----5-----5---5-----2-2--5--5--3------------5----------5-------|
D#|e-3----3-----2---2-----0-0--------------------------------3-------|
        I've got your letter              you've got my song
Suggest correction
comments
print report bad tab
4 comments total. Showing first comments.
0 reply
craftmydemise 31 Nov 23, 2007 01:48 AM

u need a chord diagram...i know most of them but i'd really like to see D/B AND D#

0 reply
craftmydemise 31 Nov 23, 2007 01:49 AM

u need a chord diagram.........i know most of them but i'd like to see D# AND D/B

0 reply
Tele Echoes 90 Sep 06, 2008 01:39 PM

dude, learn how to line everything up.

guest
You may want to rate the tab now too:
select rating
Wanna post a correction for this tab? Suggest correction