Oops, an error
Loading. Please wait.

Across The Sea tab

version 2
version 2

Whole song

Interactive

by Weezer
24,131 views 66 this week
1 commentread comment
1 2 3 4 5
x 14
add to favorites
×
Save as Personal and add changes to this tab that will be seen only by you. Learn more ›
×
You can save this tab as Personal to edit and correct it or add notes. All changes will be seen only by you. Learn more »
launch autoscroll
font size
0
reset
how to read this tab
guitar tuner
edit
Autoscroll
slow
fast
+/-
esc
set tempo
stop
[Intro/Verse]
eb|--2~-----------------------------------------------------|
Bb|--3~-----------------------------------------------------|
Gb|--0~-----------4--4--9--9--7--7--------4--4--5--5--7--7--|
Db|--0~-----5--5--4--4--9--9--7--7--5--5--4--4--5--5--7--7--|
Ab|--2~-----5--5--2--2--7--7--5--5--5--5--2--2--3--3--5--5--|
Eb|--3~-----3--3--------------------3--3--------------------|

eb|--------------------------------------------------|
Bb|--------------------------------------------------|
Gb|--------4--4--9--9--7--7--------4--4--5--5--7--7--|
Db|--5--5--4--4--9--9--7--7--5--5--4--4--5--5--7--7--|
Ab|--5--5--2--2--7--7--5--5--5--5--2--2--3--3--5--5--|
Eb|--3--3--------------------3--3--------------------|

eb|--------------------------------------------------|
Bb|--------------------------------------------------|
Gb|--------4--4--9--9--7--7--------4--4--9--9--7--7--|
Db|--5--5--4--4--9--9--7--7--5--5--4--4--9--9--7--7--|
Ab|--5--5--2--2--7--7--5--5--5--5--2--2--7--7--5--5--|
Eb|--3--3--------------------3--3--------------------|

[Chorus]
eb|-----------------------------------------------------|
Bb|-----------------------------------------------------|
Gb|--------------4--4--4--4--9--9--9--9--7--7-7---------|
Db|--5--5--5--5--4--4--4--4--9--9--9--9--7--7-7--2-2-2--|
Ab|--5--5--5--5--2--2--2--2--7--7--7--7--5--5-5--2-2-2--|
Eb|--3--3--3--3----------------------------------0-0-0--|

eb|--------------------------------------------------|
Bb|--------------------------------------------------|
Gb|--------------4--4--4--4--9--9--9--9--7--7--7--7--|
Db|--5--5--5--5--4--4--4--4--9--9--9--9--7--7--7--7--|
Ab|--5--5--5--5--2--2--2--2--7--7--7--7--5--5--5--5--|
Eb|--3--3--3--3--------------------------------------|

eb|--12-12-12-12-12--12-12-12-12--10-10-10-10-10--10-10-10-10--|
Bb|--13-13-13-13-13--13-13-13-13--12-12-12-12-12--12-12-12-12--|
Gb|------------------------------------------------------------|
Db|------------------------------------------------------------|
Ab|------------------------------------------------------------|
Eb|------------------------------------------------------------|

eb|-------------------------------------------------------------|
Bb|-------------------------------------------------------------|
Gb|-------------------------------------------------------------|
Db|--10~--------------------------9~----------------------------|
Ab|--10~-------------------------10~----------------------------|
Eb|---8~--------------------------8~----------------------------|

eb|--15-15-15-15-15-15-15-15-15-15-15-15-15-15-15-15--|
Bb|--15-15-15-15-15-15-15-15-15-15-15-15-15-15-15-15--|
Gb|---------------------------------------------------|
Db|---------------------------------------------------|
Ab|---------------------------------------------------|
Eb|---------------------------------------------------|

eb|---------------------------------------------------|
Bb|---------------------------------------------------|
Gb|--7~-----------------------------------------------|
Db|--7~-----------------------------------------------|
Ab|--5~-----------------------------------------------|
Eb|---------------------------------------------------|

eb|--------------------------------------------------|
Bb|--------------------------------------------------|
Gb|--------------------7--7--5--5--7--7--------------|
Db|--5--5—-4--4--2--2--7--7--5--5--7--7--5--5--5--5--|
Ab|--5--5--5--5--2--2--5--5--3--3--5--5--5--5--5--5--|
Eb|--3--3--3--3--0--0--------------------3--3--3--3--|

eb|----0---0---0---0---0---0---0---0----15----15----15----15--|
Bb|--0---0---0---0---0---0---0---0---15----15----15----15-----|
Gb|-----------------------------------------------------------|
Db|-----------------------------------------------------------|
Ab|-----------------------------------------------------------|
Eb|-----------------------------------------------------------|

eb|-----15----15----14----14--|
Bb|--15----15----15----15-----|
Gb|---------------------------|
Db|---------------------------|
Ab|---------------------------|
Eb|---------------------------|

[Verse]
eb|--------------------------------------------------|
Bb|--------------------------------------------------|
Gb|--------4--4--9--9--7--7--------4--4--5--5--7--7--|
Db|--5--5--4--4--9--9--7--7--5--5--4--4--5--5--7--7--|
Ab|--5--5--2--2--7--7--5--5--5--5--2--2--3--3--5--5--|
Eb|--3--3--------------------3--3--------------------|

eb|--------------------------------------------------|
Bb|--------------------------------------------------|
Gb|--------4--4--9--9--7--7--------4--4--5--5--7--7--|
Db|--5--5--4--4--9--9--7--7--5--5--4--4--5--5--7--7--|
Ab|--5--5--2--2--7--7--5--5--5--5--2--2--3--3--5--5--|
Eb|--3--3--------------------3--3--------------------|

eb|--------------------------------------------------|
Bb|--------------------------------------------------|
Gb|--------4--4--5--5--7--7--------4--4--5--5--7--7--|
Db|--5--5--4--4--5--5--7--7--5--5--4--4--5--5--7--7--|
Ab|--5--5--2--2--3--3--5--5--5--5--2--2--3--3--5--5--|
Eb|--3--3--------------------3--3--------------------|

eb|-----------------------------------------------------|
Bb|-----------------------------------------------------|
Gb|--------4--4--5--5--7--7--------4--4--5--5--7--------|
Db|--5--5--4--4--5--5--7--7--5--5--4--4--5--5--7-2-2-2--|
Ab|--5--5--2--2--3--3--5--5--5--5--2--2--3--3--5-2-2-2--|
Eb|--3--3--------------------3--3----------------0-0-0--|

[Chorus 2]
eb|-----------------------------------------------------|
Bb|-----------------------------------------------------|
Gb|--------------4--4--4--4--9--9--9--9--7--7-7---------|
Db|--5--5--5--5--4--4--4--4--9--9--9--9--7--7-7--2-2-2--|
Ab|--5--5--5--5--2--2--2--2--7--7--7--7--5--5-5--2-2-2--|
Eb|--3--3--3--3----------------------------------0-0-0--|

eb|--------------------------------------------------|
Bb|--------------------------------------------------|
Gb|--------------4--4--4--4--9--9--9--9--7--7--7--7--|
Db|--5--5--5--5--4--4--4--4--9--9--9--9--7--7--7--7--|
Ab|--5--5--5--5--2--2--2--2--7--7--7--7--5--5--5--5--|
Eb|--3--3--3--3--------------------------------------|

eb|--12-12-12-12-12--12-12-12-12--10-10-10-10-10--10-10-10-10--|
Bb|--13-13-13-13-13--13-13-13-13--12-12-12-12-12--12-12-12-12--|
Gb|------------------------------------------------------------|
Db|------------------------------------------------------------|
Ab|------------------------------------------------------------|
Eb|------------------------------------------------------------|

eb|-------------------------------------------------------------|
Bb|-------------------------------------------------------------|
Gb|-------------------------------------------------------------|
Db|--10~--------------------------9~----------------------------|
Ab|--10~-------------------------10~----------------------------|
Eb|---8~--------------------------8~----------------------------|

eb|--15-15-15-15-15-15-15-15-15-15-15-15-15-15-15-15--|
Bb|--15-15-15-15-15-15-15-15-15-15-15-15-15-15-15-15--|
Gb|---------------------------------------------------|
Db|---------------------------------------------------|
Ab|---------------------------------------------------|
Eb|---------------------------------------------------|

eb|---------------------------------------------------|
Bb|---------------------------------------------------|
Gb|--7~-----------------------------------------------|
Db|--7~-----------------------------------------------|
Ab|--5~-----------------------------------------------|
Eb|---------------------------------------------------|

eb|--------------------------------------------------|
Bb|--------------------------------------------------|
Gb|--------------------7--7--5--5--7--7--------------|
Db|--5--5—-4--4--2--2--7--7--5--5--7--7--5--5--5--5--|
Ab|--5--5--5--5--2--2--5--5--3--3--5--5--5--5--5--5--|
Eb|--3--3--3--3--0--0--------------------3--3--3--3--|

[Solo]
eb|--6-6-6-8-8-8-10-10--15-15-15-13-13-13-13-10-10-10-10-8-8-6-6--|
Bb|--x-x-x-x-x-x--x--x---x--x--x--x--x--x--x--x--x--x--x-x-x-x-x--|
Gb|--3-3-3-5-5-5--7--7--12-12-12-10-10-10-10--7--7--7--7-5-5-3-3--|
Db|---------------------------------------------------------------|
Ab|---------------------------------------------------------------|
Eb|---------------------------------------------------------------|

eb|----------------------------------------------------------------|
Bb|----------------------------------------------------------------|
Gb|--------------------------------------------------8--8--10--10--|
Db|--8--8--8--8--7--7--7--7--5--5--5--5--3--3--3--3--8--8--10--10--|
Ab|--8--8--8--8--7--7--7--7--5--5--5--5--3--3--3--3--6--6---8---8--|
Eb|--6--6--6--6--5--5--5--5--3--3--3--3--1--1--1--1----------------|

eb|--18-18-18-17~/---13-13-15-15-15-10-10-10-13-13--|
Bb|---x--x--x--x------x--x--x--x--x--x--x--x--x--x--|
Gb|--15-15-15-14~/---10-10-12-12-12--7--7--7-10-10--|
Db|-------------------------------------------------|
Ab|-------------------------------------------------|
Eb|-------------------------------------------------|

eb|-------------------------------------------------|
Bb|-------------------------------------------------|
Gb|--------------7--7----7--------------7--7-----7--|
Db|--5--5--5-----7--7----7--5--5--5-----7--7-----7--|
Ab|--5--5--5-----5--5----5--5--5--5-----5--5-----5--|
Eb|--3--3--3----------------3--3--3-----------------|

eb|-----------------------------------------|
Bb|--15-13-13-13-13----13v~-----13----15v~--|
Gb|-----------------15-------15----15-------|
Db|-----------------------------------------|
Ab|-----------------------------------------|
Eb|-----------------------------------------|

eb|-----------------------------------------|
Bb|-----------------------------------------|
Gb|--5--5--5--5--5--5--5--5--5--5--5--5--5--|
Db|--5--5--5--5--5--5--5--5--5--5--5--5--5--|
Ab|--3--3--3--3--3--3--3--3--3--3--3--3--3--|
Eb|-----------------------------------------|

eb|--15-15-15-14~/---10-10-12-12-12-14-14-14-15-15--|
Bb|---x--x--x--x------x--x--x--x--x--x--x--x--x--x--|
Gb|--12-12-12-11~/----7--7--9--9--9-11-11-11-12-12--|
Db|-------------------------------------------------|
Ab|-------------------------------------------------|
Eb|-------------------------------------------------|

eb|-------------------------------------------------|
Bb|-------------------------------------------------|
Gb|--------------7--7----7--------------7--7-----7--|
Db|--5--5--5-----7--7----7--5--5--5-----7--7-----7--|
Ab|--5--5--5-----5--5----5--5--5--5-----5--5-----5--|
Eb|--3--3--3----------------3--3--3-----------------|

eb|----------------------------------------------------------|
Bb|--12-10-10-10-10----10v~--15t15t15t15t15t15t15t15t-13-12--|
Gb|-----------------12---------------------------------------|
Db|----------------------------------------------------------|
Ab|----------------------------------------------------------|
Eb|----------------------------------------------------------|

eb|-----------------------------------------------------------|
Bb|-----------------------------------------------------------|
Gb|-----------------------------------------------------------|
Db|--7--7--7--7--7--7--7--7--7--7--7--7--7--7--7--7--7--7--7--|
Ab|--7--7--7--7--7--7--7--7--7--7--7--7--7--7--7--7--7--7--7--|
Eb|--5--5--5--5--5--5--5--5--5--5--5--5--5--5--5--5--5--5--5--|

eb|-----------------------------------------------|
Bb|-----------12-12-12-14-12--14b16--14r--12------|
Gb|--13-13-13--------------------------------13~--|
Db|-----------------------------------------------|
Ab|-----------------------------------------------|
Eb|-----------------------------------------------|

eb|-----------------------------------------------|
Bb|-----------------------------------------------|
Gb|---6--6--6--------------6--6--6----------------|
Db|---6--6--6----6--6----6-6--6--6----6--6----6---|
Ab|---4--4--4----6--6----6-4--4--4----6--6----6---|
Eb|--------------4--4----4------------4--4----4---|

eb|--16-16-16-14-14-14-14-14-14-14-14-14-16-16------|
Bb|---x--x--x--x--x--x--x--x--x--x--x--x--x--x-(0)--|
Gb|--13-13-13-11-11-11-11-11-11-11-11-11-13-13------|
Db|-------------------------------------------------|
Ab|-------------------------------------------------|
Eb|-------------------------------------------------|

eb|-------------------------------------------------|
Bb|-------------------------------------------------|
Gb|-------------------------------------------------|
Db|----4~-------------------------------6----9~-----|
Ab|----4~-------------------------------6----9~-----|
Eb|----2~-------------------------------4----7~-----|

[Breakdown] 
(Palm-muted)
(3:10)
eb|-----------------------------------------------------------|
Bb|-----------------------------------------------------------|
Gb|-----------------------------------------------------------|
Db|--9-9-9-9-9-9-9-9-6-6-6-6-6-6-6-6--------------------------|
Ab|--7-7-7-7-6-6-6-6-4-4-4-4-2-2-2-2-7-7-7-7-7-7-7-7-9-9-9-9--|
Eb|----------------------------------5-5-5-5-4-4-4-4-7-7-7-7--|

eb|-----------------------------------------------------------|
Bb|-----------------------------------------------------------|
Gb|-----------------------------------------------------------|
Db|--9-9-9-9-9-9-9-9-6-6-6-6-6-6-6-6--------------------------|
Ab|--7-7-7-7-6-6-6-6-4-4-4-4-2-2-2-2-7-7-7-7-7-7-7-7-9-9-9-9--|
Eb|----------------------------------5-5-5-5-4-4-4-4-7-7-7-7--|

[Verse]
eb|--------------------------------------------------|
Bb|--------------------------------------------------|
Gb|--------4--4--9--9--7--7--------4--4--5--5--7--7--|
Db|--5--5--4--4--9--9--7--7--5--5--4--4--5--5--7--7--|
Ab|--5--5--2--2--7--7--5--5--5--5--2--2--3--3--5--5--|
Eb|--3--3--------------------3--3--------------------|

eb|--------------------------------------------------|
Bb|--------------------------------------------------|
Gb|--------4--4--9--9--7--7--------4--4--5--5--7--7--|
Db|--5--5--4--4--9--9--7--7--5--5--4--4--5--5--7--7--|
Ab|--5--5--2--2--7--7--5--5--5--5--2--2--3--3--5--5--|
Eb|--3--3--------------------3--3--------------------|

eb|-----------------------------------------------|
Bb|-----------------------------------------------|
Gb|--------4--4--5--5--7--7--9--9--4--4--5--5--7--|
Db|--5--5--4--4--5--5--7—-7--9--9--4--4--5--5--7--|
Ab|--5--5--2--2--3--3--5--5--7--7--2--2--3--3--5--|
Eb|--3--3-----------------------------------------|

[Final Chorus]
eb|-------------------------------------------------------|
Bb|-------------------------------------------------------|
Gb|--------------4--4--4--4--------------9--9--9-9-7-7-7--|
Db|--5--5--5--5--4--4--4--4--7--7--7--7--9--9--9-9-7-7-7--|
Ab|--5--5--5--5--2--2--2--2--7--7--7--7--7--7--7-7-5-5-5--|
Eb|--3--3--3--3--------------5--5--5--5-------------------|

eb|-------------------------------------------------------|
Bb|-------------------------------------------------------|
Gb|--------------4--4--4--4--------------9-9-9-9-9-9-9-9--|
Db|--5--5--5--5--4--4--4--4--7--7--7--7--9-9-9-9-9-9-9-9--|
Ab|--5--5--5--5--2--2--2--2--7--7--7--7--7-7-7-7-7-7-7-7--|
Eb|--3--3--3--3--------------5--5--5--5-------------------|

eb|--12-12-12-12-12--12-12-12-12--10-10-10-10-10--10-10-10-10--|
Bb|--13-13-13-13-13--13-13-13-13--12-12-12-12-12--12-12-12-12--|
Gb|------------------------------------------------------------|
Db|------------------------------------------------------------|
Ab|------------------------------------------------------------|
Eb|------------------------------------------------------------|

eb|------------------------------------------------------------|
Bb|------------------------------------------------------------|
Gb|------------------------------------------------------------|
Db|--10~--------------------------9~---------------------------|
Ab|--10~-------------------------10~---------------------------|
Eb|---8~--------------------------8~---------------------------|

eb|--15-15-15-15-15-15-15-15-15-15-15-15-15-15-15-15--|
Bb|--15-15-15-15-15-15-15-15-15-15-15-15-15-15-15-15--|
Gb|---------------------------------------------------|
Db|---------------------------------------------------|
Ab|---------------------------------------------------|
Eb|---------------------------------------------------|

eb|---------------------------------------------------|
Bb|---------------------------------------------------|
Gb|--7~-----------------------------------------------|
Db|--7~-----------------------------------------------|
Ab|--5~-----------------------------------------------|
Eb|---------------------------------------------------|

eb|--------------------------------------------------|
Bb|--------------------------------------------------|
Gb|--------------------7--7--5--5--7--7--------------|
Db|--5--5—-4--4--2--2--7--7--5--5--7--7--5--5--5--5--|
Ab|--5--5--5--5--2--2--5--5--3--3--5--5--5--5--5--5--|
Eb|--3--3--3--3--0--0--------------------3--3--3--3--|

eb|----------------------------------------|
Bb|----------------------------------------|
Gb|--------------------7--7--5~---7~-------|
Db|--5--5--4--4--2--2--7--7--5~---7~---5~--|
Ab|--5--5--5--5--2--2--5--5--3~---5~---5~--|
Eb|--3--3--3--3--0--0------------------3~--|



************************************

| b    Bend
| ~    Vibrato
| x    Dead note
| t    Tapping
| r    Release
| (n)  Ghost note


************************************
Suggest correction
Creating personal tab
Creating personal tab
You can edit any tab online and save it as your Personal.

You can edit, replace or remove any tab part or add personal notes – all changes will be seen only by you.

Personal tabs can be accessed anytime from any device, even offline.
Learn more »
comments
print report bad tab
1 comment total.
0 reply
GoShox 10 Jan 10, 2009 06:41 PM

thanks so much!

guest
You may want to rate the tab now too:
select rating
Wanna post a correction for this tab? Suggest correction