Oops, an error
Loading. Please wait.

Back To The Shack Tab

version 1
version 1

Whole song

Interactive

13,732 views 27 this week
4 commentsread comments
1 2 3 4 5
1 last vote to show rating
add to favorites
launch autoscroll
font size
0
reset
how to read this tab
guitar tuner
Autoscroll
slow
fast
+/-
esc
set tempo
stop
Help us to improve Ultimate-Guitar.com Take our survey!
×
Author
#----------------------------------PLEASE NOTE--------------------------------#
#This file is the author's own work and represents their interpretation of the#
#song. You may only use this file for private study, scholarship, or research.#
#-----------------------------------------------------------------------------#
#-- File created with Instab - http://www.pconline.com/~smcarey/instab.html --#
#-----------------------------------------------------------------------------#

Author/Artist: Weezer
Title: Back To The Shack

h hammer on
p pull off
\ slide down
m mute
u up stroke

Strum at the 21st fret. 
Bend notes slightly.


Tuning (eb A D G B E)
Album Tuning (c# A D G B E), Down ~ 10%, (c#, D) Down ~ 20%
Live 1/2 Step Down (eb ab db gb bb eb), Down ~ 10%
Key: (C + G#)



----|-------------------------------------------------|--|
----|-------------------------------------------------|--|
----|-------------------------------------------------|--|
----|-------------------------------------------------|--|
----|--------11h13p11--13--11-----------11h13p11--11--|--|
----|-3--5-\--------------------3--5-\----------------|--|
      u                u        u                 u  

  Intro G1  



----|------------------------------------|--|
----|------------------------------------|--|
----|------------------------------------|--|
----|------------------------------18-\--|--|
----|-----------------------19/21--------|--|
----|------------------------------------|--|


  Intro G2





----|---------|--|
----|---------|--|
----|---------|--|
----|---------|--|
----|-----6-\-|--|
----|-3---5-\-|--|
      u

  Verse





----|-----------------|--|
----|-----------------|--|
----|-----------------|--|
----|-----------------|--|
----|-6-6-6-6-4-4-4-4-|--|
----|-5-5-5-0-3-3-3-0-|--|
                                                                         

  Chorus




----|-------------------------|--|----------------------|
----|-------------------------|--|----------------------|
----|-------------------------|--|----------------------|
----|-------------------------|2x|----------------------|
----|-6-\--13h15p13-11-9-11-9-|--|-4--6--3--8--1--------|
----|-5-\---------------------|--|----------------------|


  Bridge                          







----|-----------------------------------14------14-----14-|
----|----------------9------7---7--7-13-----13-----13-----|
----|-----10--10v----10---5---5---------------------------|
----|-----10--10v-----------------------------------------|
----|-----11--11v-----------------------------------------|
----|-5\--------------------------------------------------|
          u m u      u

  Solo  
                                                                  



----|----11----10-----9-----8-----7-----6-----5-----4-|
----|-11----10-----9-----8-----7-----6-----5-----4----|
----|-------------------------------------------------|
----|-------------------------------------------------|
----|-------------------------------------------------|
----|-------------------------------------------------|
                                                                              





----|--------------------------------------------------|
----|--------------------------------------------------|
----|--------------------------------------------------|
----|--------------------------------------------------|
----|--------------------------------------------------|
-5--|-5-5h7p5---7---5---3----5---5-5h7p5---5---3----5--|
 

  G1                                                                          



----|-------|---|
----|-------|---|
----|-------|---|
----|----18-|14x|
----|-18----|---|
----|-------|---|


  G2    m  m                                                                  




----|-------------------------------------------------------------------|
----|-------------------------21----------------------------------------|
----|-20----------------------------------------------20----------------|
----|----18----18----18----18----18----18----18----18----18----18----18-|
----|-------18----18----18----------18----18----18----------18----18----|
----|-------------------------------------------------------------------|
              


                    
                                           

----|----11----10---9----8----7---6-|
----|-11----10----9---8----7----6---|
----|-------------------------------|
----|-------------------------------|
----|-------------------------------|
----|-------------------------------|
                                                                              





Suggest correction
Give kudos to tab author, rate the tab!
1 2 3 4 5
comments
print report bad tab
4 comments total. Showing first comments.
-1 reply
Chopgood1 106 Jul 24, 2014 03:19 AM

So almost there with there with the high bit after the power chords, it goes:
e|-------------------|
B|-------------------|
G|--3h4p3-1--3-1-----|
D|-------------------|
A|-------------------|
E|-------------------|

0 reply
Paulppaul 938 Jul 24, 2014 10:30 AM, edited at 10:40 am

Doesn't sound like it to me but sounds good either way.

0 reply
snazmaster 10 Aug 04, 2014 11:54 AM

Lack of accuracy.

guest
You may want to rate the tab now too:
select rating
Wanna post a correction for this tab? Suggest correction