Oops, an error
Loading. Please wait.

Butterfly Tab

version 2
version 2

Whole song

Interactive

1,917 views 9 this week
no commentswrite comment
1 2 3 4 5
x 6
add to favorites
launch autoscroll
font size
0
reset
how to read this tab
guitar tuner
Autoscroll
slow
fast
+/-
esc
set tempo
stop
Help us to improve Ultimate-Guitar.com Take our survey!
×
Author
Difficulty
Tuning
novice
D# G# C# F# A# D#
-------------------------------------------------------------------------------
                             BUTTERFLY - Weezer
-------------------------------------------------------------------------------
Tabbed by: Seil Weiss
E-mail: seilweiss@gmail.com

Tuning: 1/2 step down (EbAbDbGbBbEb)

Chords:
G (320033) or (320003)
Em (022003) or (022000)
C (x32010)
D (x00232)
Am7 (x02010) or (x02013)
G7 (320001)


    Yesterday I went outside with my momma's mason jar
G         Em         C               D

    Caught a lovely butterfly
G            Em

Guitar Fill
e|-------0-----------------|
B|-------1--3--1--0-----0--|
G|----0-----0--------2-----|
D|-2--2--------2-----------|
A|-3-----------------------|
E|-------------------------|

    When I woke up today, looked in on my fairy pet
G          Em        C              D

    She had withered all away,
G           Em

         No more sighing in her breast
e|-------0-------0---0---0--0--|
B|----------3----1---1---1--1--|
G|----0----------0---0---0--0--|
D|-2-------------2---2---2--2--|
A|-3-------------0---0---0--0--|
E|-----------------------------|

    I'm sorry for what I did
D

    I did what my body told me to, I didn't mean to do you harm
G         Em           Am7           D

    Every time I pin down what I think I want, it slips away
G         G7              C              D

    The ghost slips away
G       Em          Am7

    Smell you on my hand for days, I can't wash away your scent
G             Em             C             D

  If I'm a dog then you're a bitch
G          Em

e|-------0-----------------|
B|----------3--1--0-----0--|
G|----0-----0--2-----2-----|
D|-2-----------0-----------|
A|-3-----------------------|
E|-------------------------|

    I guess you're as real as me, maybe I can live with that
G           Em                C         D

    Maybe I need fantasy
G           Em

         Life of chasing butterfly
e|-------0---------------------|
B|------------3--1---0------0--|
G|----0----------0-------------|
D|-2-------------2-------2-----|
A|-3-------------0-------------|
E|-----------------------------|

   I'm sorry for what I did
D

    I did what my body told me to, I didn't mean to do you harm
G         Em           Am7           D

    Every time I pin down what I think I want, it slips away
G         G7              C              D

    The ghost slips away
G       Em          Am7

    I told you I would return when the robin makes his nest
G          Em            C             D

  But I ain't never coming back
G             Em

e|-------0-----------------|
B|----------3--1--0-----0--|
G|----0--------2-----2-----|
D|-------------0-----------|
A|-3-----------------------|
E|-------------------------|

               I'm sorry          I'm sorry
G                  D  G               Em

I'm sor          -          ry
   C                        G                         G
e|-------------------------|
B|-------------------------|
G|----0-----0-----0----2-0-|
D|-2-----2-----2-----2-----|
A|-3-----3-----3-----3-----|
E|-------------------------|
Suggest correction
comments
print report bad tab
guest
You may want to rate the tab now too:
select rating
Wanna post a correction for this tab? Suggest correction