Oops, an error
Loading. Please wait.

Da Vinci bass

version 1
version 1

Whole song

Interactive

by Weezer
616 views 1 this week
no commentswrite comment
1 2 3 4 5
1 last vote to show rating
add to favorites
×
Save as Personal and add changes to this tab that will be seen only by you. Learn more ›
×
You can save this tab as Personal to edit and correct it or add notes. All changes will be seen only by you. Learn more »
launch autoscroll
font size
0
reset
guitar tuner
edit
Autoscroll
slow
fast
+/-
esc
set tempo
stop
Author
Difficulty
Intro:

G|--------------
D|--1--2--1-----
A|-----------4--
E|--------------


Verse 1:

I tried taking a picture of you
G|----------------------------------------------
D|--------------4--4--2-------------------------
A|--2-----2-------------------------------------
E|-----------------------2-----2--2-----2-------

When I look at it nothing comes through
G|-----------------------------------
D|-----------------------------------
A|--------------1--1--1--2-----2--2--
E|--2-----2--------------------------

G|--------------
D|--1--2--1-----
A|-----------4--
E|--------------

Sometimes I wonder if you're just a ghost
G|----------------------------------------------
D|--------------4--4--2-------------------------
A|--2-----2-------------------------------------
E|-----------------------2-----2--2-----2-------

And I wonder who's haunting you most
G|-----------------------------------
D|-----------------------------------
A|--------------1--1--1--2-----2--2--
E|--2-----2--------------------------

G|--4-----------
D|-----4-----1--
A|--------------
E|--------------

I tried describing you to all my friends
G|----------------------------------------------
D|--------------4--4--2-------------------------
A|--2-----2-------------------------------------
E|-----------------------2-----2--2-----2-------

But they just told me to polish my lens
G|-----------------------------------
D|-----------------------------------
A|--------------1--1--1--2-----2--2--
E|--2-----2--------------------------

G|--------------
D|--1--2--1-----
A|-----------4--
E|--------------

You're sweet, generous, my sweetheart
G|----------------------------------------------
D|--------------4--4--2-------------------------
A|--2-----2-------------------------------------
E|-----------------------2-----2--2-----2-------

I don't even know where to start
G|--------------------------------------------------
D|--------------------------------------------------
A|--------------1--1--1--2-----2--2-----2-----------
E|--2-----2-----------------------------------------


Chorus:

Even Da Vinci couldn't paint you
G|--------------------------------------------------
D|--------------------------------------------------
A|--6--6--6--6--6--6--6--6--7--7--7--7--7--7--7--7--
E|--------------------------------------------------

Stephen Hawking can't explain you
G|--------------------------------------------------
D|--4--4--4--4--4--4--4--4--------------------------
A|--------------------------------------------------
E|--------------------------7--7--7--7--6--6--6--6--

Rosetta Stone could not translate you
G|--------------------------------------------------
D|--6--6--6--6--6--6--6--6--------------------------
A|--------------------------4--4--4--4--4--4--4--4--
E|--------------------------------------------------

I'm at a loss for words, I'm at a loss for words
G|--------------------------------------------------
D|--4--4--4--4--4--4--4--4--------------------------
A|--------------------------------------------------
E|--------------------------7--7--7--7--7--7--7--7--

I couldn't put it in a novel
G|--------------------------------------------------
D|--------------------------------------------------
A|--6--6--6--6--6--6--6--6--7--7--7--7--7--7--7--7--
E|--------------------------------------------------

I wrote a page, but it was awful
G|--------------------------------------------------
D|--4--4--4--4--4--4--4--4--------------------------
A|--------------------------------------------------
E|--------------------------7--7--7--7--6--6--6--6--

Now I just want to sing your gospel
G|--------------------------------------------------
D|--6--6--6--6--6--6--6--6--------------------------
A|--------------------------4--4--4--4--4--4--4--4--
E|--------------------------------------------------

I'm at a loss for words, I'm at a loss for words
G|--------------------------------------------------
D|--4--4--4--4--4--4--4--4--------------------------
A|--------------------------------------------------
E|--------------------------7--7--7--7--7--7--7--7--


Bridge:

We've come so far, now here we are
G|--------------------------------------------------
D|--------------------------------------------------
A|--2--2--2--2--------------4--4--4--4--------------
E|--------------2--2--2--2--------------4--4--4--4--

We made it through the night
G|--------------------------------------------------
D|--------------------------------------------------
A|--------------------------2--2--2--2--2--2--2--2--
E|--0--0--0--0--2--2--2--2--------------------------

I know we will, be strong, cause still
G|--------------------------------------------------
D|--------------------------------------------------
A|--2--2--2--2--------------4--4--4--4--------------
E|--------------2--2--2--2--------------4--4--4--4--

Everything will be alright
G|--------------------------------------------------
D|--------------------------------------------------
A|--------------------------2--2--2--2--2--2--2--2--
E|--0--0--0--0--2--2--2--2--------------------------



Order:
Intro
Verse 1
Chorus
Verse 2
Chorus
Bridge
Chorus
Outro



Verse 2 Lyrics: 
I looked you up on ancestry.com
There was no record of Dad or of Mom
It's like you fell straight out of the sky
And left the scholars to figure out why

I like to think that I know quite a lot
But with you it feels like I forgot
I wish that I could explain who you are
But when I try to I never get far


            
            
Suggest correction
Creating personal tab
Creating personal tab
You can edit any tab online and save it as your Personal.

You can edit, replace or remove any tab part or add personal notes – all changes will be seen only by you.

Personal tabs can be accessed anytime from any device, even offline.
Learn more »
Give kudos to tab author, rate the tab!
1 2 3 4 5
comments
print report bad tab
guest
You may want to rate the tab now too:
select rating
Wanna post a correction for this tab? Suggest correction