Oops, an error
Loading. Please wait.

Do You Wanna Get High tab

by Weezer
7,222 views 51 this week
3 commentsread comments
1 2 3 4 5
x 9
add to favorites
×
Save as Personal and add changes to this tab that will be seen only by you. Learn more ›
×
You can save this tab as Personal to edit and correct it or add notes. All changes will be seen only by you. Learn more »
launch autoscroll
font size
0
reset
how to read this tab
guitar tuner
edit
Autoscroll
slow
fast
+/-
esc
set tempo
stop
WEEZER-Do you want to get high
I'm not sure 100% about guitar 2 but since there is no other tab It's the best there is :D
Tuning:Half-step down

[Intro]
both guitars
E|--8b(full)--|
B|--12b(full)-|
G|------------|
D|------------|
A|------------|
E|------------|

[Verse+chorus]
guitar 1 (palm muted)
E|------------------------------------------------------------------------------------------------------|
B|------------------------------------------------------------------------------------------------------|
G|--------------------------------------------------7--7--7--7------------------------------------------|
D|--2--2--2--2--2--2--2--2--7--7--7--7--7--7--7--7--7--7--7--7------------------------------------------|
A|--2--2--2--2--2--2--2--2--7--7--7--7--7--7--7--7--5--5--5--5-----5--5--5--5--5--5--5--5--5--5--5------|
E|--0--0--0--0--0--0--0--0--5--5--5--5--5--5--5--5-----------------2--2--2--2--3--3--3--3--2--2--2------|

[Chorus]
guitar 2
E|------------------------------------------------------------------------------------------------------|
B|------------------------------------------------------------------------------------------------------|
G|--18--17--15--13--12-----------17--15--13--12--10-----------18--17--15--13--12--20b22--18--17---------|
D|------------------------------------------------------------------------------------------------------|
A|------------------------------------------------------------------------------------------------------|
E|------------------------------------------------------------------------------------------------------|

[Chorus 2]
guitar 2
E|-----------------------------------------------------------------------------------------------------|
B|-----------------------------------------------------------------------------------------------------|
G|----------------------------------------------------------------------------------------------12--11-|
D|--9-9-9-9-9--10--------9--7-----7--7--7--7--7--9--12--14--9--9--9--9-----10-----9--7--7--7/12--------|
A|-----------------------------------------------------------------------------------------------------|
E|-----------------------------------------------------------------------------------------------------|

E|-----------------------------------------------------------------------------------------------------|
B|-----------------------------------------------------------------------------------------------------|
G|-----------------------------------------------------------------------------------------------------|
D|--9--9--9--9--9--10--9----------------------------------12--11-12---17b18b17-------------------------|
A|------------------------12--12--12--12--12--12--12--12-----------------------------------------------|
E|-----------------------------------------------------------------------------------------------------|

E|-----------------------------------------------------------------------------------------------------|
B|-----------------------------------------------------------------------------------------------------|
G|-----------------------------------------------------------------------------------------------------|
D|--9--9--9--9--9--9--10-----------9--7--------12b14b12--10--9-----------------------------------------|
A|-----------------------------------------------------------------------------------------------------|
E|-----------------------------------------------------------------------------------------------------|

[Bridge]
guitar 1
E|-----------------------------------------------------------------------------------------------------|
B|-----------------------------------------------------------------------------------------------------|
G|-----5----------7---------4---------9----------------------------------------------------------------|
D|-----5---X8-----7---X8----4---X8----9---X8-----------------------------------------------------------|
A|-----3----------5---------2---------7----------------------------------------------------------------|
E|-----------------------------------------------------------------------------------------------------|

Guitar 2
E|------------------------------------------------------------------------------------------------|
B|------------------------------------------------------------------------------------------------|
G|--4--4--5--5--5--5--7--7--9--9--7--7--7--5--4--4--4--4--4--4--4--4--4--9--9--9--11-11-12-12-17--|
D|------------------------------------------------------------------------------------------------|
A|------------------------------------------------------------------------------------------------|
E|------------------------------------------------------------------------------------------------|

[Solo]
E|-------------------------------------------------|
B|-------------------------------------------------|
G|--7--5--4--4h5--2--0--4--4--4--4--4--4--4--4--4--|
D|-------------------------------------------------|
A|-------------------------------------------------|
E|-------------------------------------------------|

E|--------------------------------------------------------------|
B|--8--8--8--8--10--10--12--12--12--12--12--12--10--10--10--10--|
G|--------------------------------------------------------------|
D|--5--5--5--5--7---7---9---9---9---9---9---9---7---7---7---7---|
A|--------------------------------------------------------------|
E|--------------------------------------------------------------|

E|------------------------------------------------------|
B|--17--17--17--17--15--15--13--13--12--12--12--12--12--|
G|------------------------------------------------------|
D|--14--14--14--14--12--12--10--10--9---9---9---9---9---|
A|------------------------------------------------------|
E|------------------------------------------------------|

E|------10------19------19------19------17------17------17------15----------15------|
B|--12------12------12------12------12------12------12------12------12--12------12--|
G|----------------------------------------------------------------------------------|
D|----------------------------------------------------------------------------------|
A|----------------------------------------------------------------------------------|
E|----------------------------------------------------------------------------------|

E|------19--------19------17------17--17h19p17--15--|
B|--12------12-12----12------12---------------------|
G|--------------------------------------------------|
D|--------------------------------------------------|
A|--------------------------------------------------|
E|--------------------------------------------------|

[Chorus]
guitar 2
E|------------------------------------------------------------------------------------------------------|
B|------------------------------------------------------------------------------------------------------|
G|--18--17--15--13--12-----------17--15--13--12--10-----------18--17--15--13--12--20b22--18--17---------|
D|------------------------------------------------------------------------------------------------------|
A|------------------------------------------------------------------------------------------------------|
E|------------------------------------------------------------------------------------------------------|

[Verse 1]
Crush up the blue
And inhale through your nose
Scrape every quark
From the wood in the floor

[Chorus]
She said:
Do you wanna get high?
Don’t eat no dinner tonight
I took a road trip to Mexico
And scored a hundred count
Do you wanna get high?
It’s like we’re falling in love
We can listen to Bacharach
And stop at any point

[Verse 2]
Now our bones start to ache
As we cramp on the pot
And we fall to the floor
With our face in a knot

[Chorus]
She said:
Do you wanna get high?
Don’t eat no dinner tonight
I took a road trip to Mexico
And scored a hundred count
Do you wanna get high?
It’s like we’re falling in love
We can listen to Bacharach
And stop at any point

[Bridge]
Keep on doing what you do
‘Cuz I’ll never get tired of you
Don’t need booze
‘Cuz I’ll never get tired of you
Stop the tape, kill the lights, close the drapes
And keep doing what you do
‘Cuz I’ll never get tired of you

[Guitar Solo]

[Chorus]
She said:
Do you wanna get high?
Don’t eat no dinner tonight
I took a road trip to Mexico
And scored a hundred count
Do you wanna get high?
It’s like we’re falling in love
We can listen to Bacharach
And stop at any point

[Outro]
Sleeping with Mother Theresa
Drifting in a lone fantasia
Brahmin you recite the veda
Beautiful as euthanasia
Suggest correction
Creating personal tab
Creating personal tab
You can edit any tab online and save it as your Personal.

You can edit, replace or remove any tab part or add personal notes – all changes will be seen only by you.

Personal tabs can be accessed anytime from any device, even offline.
Learn more »
comments
print report bad tab
3 comments total.
0 reply
vanomania 10 Apr 09, 2016 09:07 PM

Their facebook page posted a live performance from Amsterdam and it looks like they play it like this

Verse+chorus:
guitar 1 (palm muted)

E|------------------------------------------------------------------------------------------------------
B|------------------------------------------------------------------------------------------------------
G|--------------------------------------------------7--7--7--7------------------------------------------
D|--2--2--2--2--2--2--2--2--7--7--7--7--7--7--7--7--7--7--7--7------------------------------------------
A|--2--2--2--2--2--2--2--2--7--7--7--7--7--7--7--7--5--5--5--5-----5--5--5--5--5--5--5--5--4--4--4------
E|--0--0--0--0--0--0--0--0--5--5--5--5--5--5--5--5-----------------2--2--2--2--3--3--3--3--2--2--2------

0 reply
vanomania 10 Apr 09, 2016 09:11 PM

I mean

E|------------------------------------------------------------------------------------------------------
B|------------------------------------------------------------------------------------------------------
G|--------------------------------------------------7--7--7--7------------------------------------------
D|--2--2--2--2--2--2--2--2--7--7--7--7--7--7--7--7--7--7--7--7------------------------------------------
A|--2--2--2--2--2--2--2--2--7--7--7--7--7--7--7--7--5--5--5--5-----5--5--5--5--5--5--5--5--5--5--5------
E|--0--0--0--0--0--0--0--0--5--5--5--5--5--5--5--5-----------------2--2--2--2--3--3--3--3--2--2--2------

0 reply
maxox10 186 Apr 10, 2016 09:25 PM

yeah I saw that and I'm gonna correct it today. :)

guest
You may want to rate the tab now too:
select rating
Wanna post a correction for this tab? Suggest correction