Oops, an error
Loading. Please wait.

Dope Nose Tab

version 1
version 1

Whole song

Interactive

23,018 views 9 this week
10 commentsread comments
1 2 3 4 5
x 13
add to favorites
launch autoscroll
font size
0
reset
how to read this tab
guitar tuner
backing track
0:00
0:00
×
Best way to learn
"Dope Nose"
Autoscroll
slow
fast
+/-
esc
set tempo
stop
This song is played EADGBE and is pretty basic except for the solo. It is from the new 
cd Maladroit. The solo is tough and oplayed fast but i think that this one is correct.

Intro

E----------------------------------
B----------------------------------
G------8------8------8-------------
D-8-88x8-8-88x8-8-88x8-8-88x3------
A-8-88x6-8-88x6-8-88x6-8-88x3------
E-6-66x--6-66x--6-66x--6-66x1------

Verse 1

E----------------------------------
B----------------------------------
G----------------------------------
D------8------8------8-------------
A-8-88-6-8-88-6-3-33-6-8-88-3------
E-6-66---6-66---1-11---6-66-1------
 --------------P.M.----------------
  Dead, On My Head...

Chorus 1

E-------------------------------------------------------
B-------------------------------------------------------
G-------------------------------------------------------
D-3-88-3333333-3-88-3333333-3-88-3333333-3-88-3333333---
A-3-88-3333333-3-88-3333333-3-88-3333333-3-88-3333333---
E-1-66-1111111-1-66-1111111-1-66-1111111-1-66-1111111---


E----------------------------------
B----------------------------------
G------8------8------8-------------
D-8-88x8-8-88x8-8-88x8-8-88x3------
A-8-88x6-8-88x6-8-88x6-8-88x3------
E-6-66x--6-66x--6-66x--6-66x1------

Verse 2

E----------------------------------
B----------------------------------
G----------------------------------
D------8------8------8-------------
A-8-88-6-8-88-6-3-33-6-8-88-3------
E-6-66---6-66---1-11---6-66-1------
 --------------P.M.----------------
 Cheese Smells so good...


Chorus 2

E-------------------------------------------------------
B-------------------------------------------------------
G-------------------------------------------------------
D-3-88-3333333-3-88-3333333-3-88-3333333-3-88-3333333---
A-3-88-3333333-3-88-3333333-3-88-3333333-3-88-3333333---
E-1-66-1111111-1-66-1111111-1-66-1111111-1-66-1111111---


E----------------------------------
B----------------------------------
G------8------8------8-------------
D-8-88x8-8-88x8-8-88x8-8-88x3------
A-8-88x6-8-88x6-8-88x6-8-88x3------
E-6-66x--6-66x--6-66x--6-66x1------

Solo

E-6-4-3-4--------------------------------------
B------6-6-4b---4-----------------9------------
G------------4-6-6-4-6---4-6s9-11-11-9b9b8b8b--
D---------------------4-6----------------------
A----------------------------------------------
E----------------------------------------------


E--------------------------------------
B-16-15-15-13-13--17-16-16-14-14--17-16
G-16-15-15-13-13--17-16-16-14-14--17-16
D--------------------------------------
A--------------------------------------
E-------------------------------------- 
 

E-18p15-17p15-18p15-17p15-18p15-17p15-18p15-17p15b-18b12b12b
B-----------------------------------------------------------
G-----------------------------------------------------------
D-----------------------------------------------------------
A-----------------------------------------------------------
E-----------------------------------------------------------

Chorus 3

E-------------------------------------------------------
B-------------------------------------------------------
G-------------------------------------------------------
D-3-88-3333333-3-88-3333333-3-88-3333333-3-88-3333333---
A-3-88-3333333-3-88-3333333-3-88-3333333-3-88-3333333---
E-1-66-1111111-1-66-1111111-1-66-1111111-1-66-1111111---

Outro
 
E-------------------------------------
B-------------------------------------
G------8------8------8----------------
D-8-88x8-8-88x8-8-88x8-8-3-8-3-8-3-8-3
A-8-88x6-8-88x6-8-88x6-8-3-8-3-8-3-8-3
E-6-66x--6-66x--6-66x--6-1-6-1-6-1-6-1
Suggest correction
comments
print report bad tab
10 comments total. Showing first comments.
0 reply
meatjheadj 0 Apr 25, 2002 08:00 PM

This is a good tab and done realprofessionally... WEEZER RULES!!!!

0 reply
linkins_ghost 0 Apr 27, 2002 08:00 PM

Not bAd

0 reply
WeezerChild703 10 May 02, 2002 08:00 PM

i havent played this tab yet but its similar to the one at weezer.com except the solo looks different, as far as i can tell this looks accurate to me, heres the solo from one of the tabs on weezer.com:
e|---------------------------------------------------------------------------|
B|--11p9----9--------------------------------------------------9-------------|
G|-------10---10-8-10--8-6-8-6----8-6---6----------------6--10---10-8-8-7-7--|
D|-----------------------------8------8---8-6-8------6-8---------------------|
A|-----------------------------------------------6-8-------------------------|
E|---------------------------------------------------------------------------|

e|----------------------------------16-15-15--16p15p13h15h16-(etc)--18-------|
B|----------------------------------------------------------------------15---|
G|--15-13-13-12-12--16-15-15-13-13--------------------------------------15---|
D|---------------------------------------------------------------------------|
A|---------------------------------------------------------------------------|
E|---------------------------------------------------------------------------|

guest
You may want to rate the tab now too:
select rating
Wanna post a correction for this tab? Suggest correction