Oops, an error
Loading. Please wait.

Dreamin bass

version 1
version 1

Whole song

Interactive

by Weezer
1,644 views 3 this week
no commentswrite comment
1 2 3 4 5
3 more votes to show rating
add to favorites
×
Save as Personal and add changes to this tab that will be seen only by you. Learn more ›
×
You can save this tab as Personal to edit and correct it or add notes. All changes will be seen only by you. Learn more »
launch autoscroll
font size
0
reset
guitar tuner
backing track
0:00
0:00
edit
Autoscroll
slow
fast
+/-
esc
set tempo
stop
Dreamin' by Weezer
Tabbed by General Eric

Drop D Tuning

its an easy song once you get it, i dumbed it down a bit so if it sounds off just let me 
and im open to any corrections you got...so thanks!

1st Chorus
G|---------------------------------|
D|---------------------------------|x4
A|---------------------------------|
D|0---0---4---4---5---5---7--7-7-7p|

G|---------------------------------|
D|0---0---4---4---5---5---7--7-7-7p|
A|---------------------------------|
D|---------------------------------|

G|---------------------------------|
D|---------------------------------|
A|---------------------------------|
D|0---0---4---4---5---5---7--7-7-7p|

G|---------------------------------|
D|0---0---4---4---5---5---7--7-7-7p|
A|---------------------------------|
D|---------------------------------|

G|---------------------------------|
D|---------------------------------|
A|---------------------------------|
D|0---0---4---4---5---5---7--7-7-7p|

1st Verse
G|--------------------------------------------------|
D|--------------------------------------------------|
A|2---2-2--2-2--------------------------5---5-5--5-5|
D|-------------4---4-4--4-4-5--5-5--5-5-------------|

G|--------------------------------------------------|
D|--------------------------------------------------|
A|2---2-2--2-2--------------------------------------|
D|-------------4---4-4--4-4-2--2-2--2-2-7---7-7--7-7|

2nd Chorus
G|---------------------------------|
D|---------------------------------|x4
A|---------------------------------|
D|0---0---4---4---5---5---7--7-7-7p|

G|---------------------------------|
D|0---0---4---4---5---5---7--7-7-7p|
A|---------------------------------|
D|---------------------------------|

G|---------------------------------|
D|---------------------------------|
A|---------------------------------|
D|0---0---4---4---5---5---7--7-7-7p|

G|---------------------------------|
D|0---0---4---4---5---5---7--7-7-7p|
A|---------------------------------|
D|---------------------------------|

G|---------------------------------|
D|---------------------------------|
A|---------------------------------|
D|0---0---4---4---5---5---7--7-7-7p|

2nd Verse
G|--------------------------------------------------|
D|--------------------------------------------------|
A|2---2-2--2-2--------------------------5---5-5--5-5|
D|-------------4---4-4--4-4-5--5-5--5-5-------------|

G|--------------------------------------------------|
D|--------------------------------------------------|
A|2---2-2--2-2--------------------------------------|
D|-------------4---4-4--4-4-2--2-2--2-2-7---7-7--7-7|

Bridge
G|-------------------------------------------|
D|-------------------------------------------|x2
A|----3--3-3----3--3-3----3--3-3-2222-1h2p1h2|
D|0--0-------0-0-------0-0-------------------|

G|-------------------------------------------------------------------|
D|-------------------------------------------------------------------|
A|0--0-0--0-0--0-0--0-0...repeat as necessary and gradually slow down|
D|-------------------------------------------------------------------|

Interlude
G|       |
D|       |
A|NO BASS|
D|       |

then after "why am i so glad", when he starts singing "i am running" play this..
G|---------------------------------------------------------------|
D|---------------------------------------------------------------|x2
A|5-5-5-5-5-5-5-5-4-4-4-4-4-4-4-4-2-2-2-2-2-2-2-2----------------|
D|------------------------------------------------5-5-5-5-5-5-5-5|

3rd Chorus
G|-------------------------------|
D|-------------------------------|
A|-------------------------------|x7
D|0-0-0-0-4-4-4-4-5-5-5-5-7-7-7-7|

G|-------------------------------|
D|0-0-0-0-4-4-4-4-5-5-5-5-7-7-7-7|
A|-------------------------------|
D|-------------------------------|

Woo Hoo Ho!
G|---------------|
D|---------------|x4
A|--------0-0-0-0|
D|5-5-5-5--------|

Outro
G|---------------|
D|---------------|x3
A|---------------|
D|0-0-4-4-5-5-7-7|

G|--------------------------|
D|--------------------------|
A|----3---3-----------------|
D|0-0---0-----00-0(let ring)|

h=hammer-on
p=pull-off

            
            
Suggest correction
Creating personal tab
Creating personal tab
You can edit any tab online and save it as your Personal.

You can edit, replace or remove any tab part or add personal notes – all changes will be seen only by you.

Personal tabs can be accessed anytime from any device, even offline.
Learn more »
Give kudos to tab author, rate the tab!
1 2 3 4 5
comments
print report bad tab
guest
You may want to rate the tab now too:
select rating
Wanna post a correction for this tab? Suggest correction