Oops, an error
Loading. Please wait.
We have an official El Scorcho tab made by UG professional guitarists. Check out the tab »
×
by Weezer
5,966 views 6 this week
no commentswrite comment
1 2 3 4 5
x 3
add to favorites
×
Save as Personal and add changes to this tab that will be seen only by you. Learn more ›
×
You can save this tab as Personal to edit and correct it or add notes. All changes will be seen only by you. Learn more »
launch autoscroll
font size
0
reset
guitar tuner
backing track
0:00
0:00
edit
Autoscroll
slow
fast
+/-
esc
set tempo
stop
weezer
el scorcho
pinkerton--track 7

i don't ever make tabs and barely use them, but i'm primarily a guitar player and liked 
sharp's part for this so i wanted to learn it quick.
all the tabs are laughable at best.  so this one is damn close.  everyone is welcome.

tuning: HALF STEP DOWN

no bass til the chorus

why you wanna go and do me like that, come down on the street and dance with me
Gb---------------------------------------------------------------------------|
Db---------------------------------------------------------------------------|
Ab---------------------------------------------------------------------------|
Eb------------------------------------------------------------------5-5/15/5-|

Chorus:
i'm a lot like you so please, hello i'm here, i'm waiting
Gb-------------------------------------------------9-7-6-------|
Db-------------------------------------------------------9-----|
Ab---------5555-5-------5555-5-------5555-5--------------------|
Eb--5-5-5-5------5-5-5-5------5-5-5-5------5-5-5-5-------------|

oh i think i'd be good for you and you'd be good for me
Gb---------------------------------------------------------------------------|
Db---------------------------------------------------141414-14-14-14-----7-6-|
Ab---------5-5-5p7-54---------5577991212-12-12-12-12--------------------5-4--|
Eb--5-5-5-5-----------5-5-5-5----------------------------------------555-----|
                                                     triplet

Gb---------------------------------------------------------------------------|
Db---------------------------------------------------------------------------|
Ab---------------------------------------------------------------------------|
Eb---5/0---------------------------------------------------------------------|

Chorus 2 is the same

Bridge:
How stupid is it, i can't talk about it, i gotta sing about it
Gb--------------------------------------------|
Db--------------------------------------------|
Ab-----------5555555--------77777777----------|
Eb----5555555--------7777777------------------|

how stupid is it, won't you give me a minute
Gb--------------------------------99999999-----|
Db---------------------------------------------|
Ab-----------5555555--------7-7-7--------------|
Eb----5555555--------7777777-------------------|

how stupid is it, oh ya know, you want me to
Gb-----------------------------9-7-6-----|
Db---------------------------------------|
Ab----------5-55-5--------7-77-----------|
Eb----5-5-5--------7-7-7-----------------|

Gb-------------------------------------------------|
Db-----------------7-54----------------9-----------|
Ab--------7-54-5-5----------9-76------2-0----------|
Eb----5-5---------------7-7-------0-0----4-5~~/19--|

Guitar "Solo"
Gb----------------------------------------------|
Db--------------------------14-14-14p16-19------|
Ab---------14-12-11-12--------------------------|
Eb----S5----------------------------------------|
                             .  .

Chorus 3
Gb-------------------------------------------------9-7-6-------|
Db-------------------------------------------------------9-----|
Ab---------5555-5-------5555-5-------5555-5--------------------|
Eb--5-5-5-5------5-5-5-5------5-5-5-5------5-5-5-5-------------|

oh i think i'd be good for you and you'd be good
Gb----------------------------------------------------9911111313-14141414----|
Db------------------------------------------9911111212-----------------------|
Ab---------5-5-5p7-54---------55779911111212---------------------------------|
Eb--5-5-5-5-----------5-5-5-5------------------------------------------------|

for me
Gb-1414141414141313111------------|
Db--------------------------------|
Ab---------------------16161414---|
Eb--------------------------------|

i'm a lot like you (i'm a lot like you)
Gb-------6----------11--------6-----------11--------|
Db--------------------------------------------------|
Ab-----7---7-----12---12----7---7------12---12------|
Eb---5---------10---------5---------10--------------|

i'm a lot like you (i'm waiting oh)
Gb-------6----------11--------6-----------13--------|
Db--------------------------------------------------|
Ab-----7---7-----12---12----7---7------14---14------|
Eb---5---------10---------5---------12--------------|

Gb-------------------------------------------------------------------------|
Db-----------------------------------------------------------------7-6-----|
Ab---------5555-5-------5555-5-------5555-5--------7777-7---------5-4------|
Eb--5-5-5-5------5-5-5-5------5-5-5-5------5-5-5-5--------5-5-5-5------5~~-|

fin.

            
            
Suggest correction
Creating personal tab
Creating personal tab
You can edit any tab online and save it as your Personal.

You can edit, replace or remove any tab part or add personal notes – all changes will be seen only by you.

Personal tabs can be accessed anytime from any device, even offline.
Learn more »
Give kudos to tab author, rate the tab!
1 2 3 4 5
comments
print report bad tab
guest
Wanna post a correction for this tab? Suggest correction