Oops, an error
Loading. Please wait.

Endless Bummer solo tab

by Weezer
2,554 views 18 this week
3 commentsread comments
1 2 3 4 5
x 6
add to favorites
×
Save as Personal and add changes to this tab that will be seen only by you. Learn more ›
×
You can save this tab as Personal to edit and correct it or add notes. All changes will be seen only by you. Learn more »
launch autoscroll
font size
0
reset
how to read this tab
guitar tuner
edit
Autoscroll
slow
fast
+/-
esc
set tempo
stop
Author
Difficulty
Tuning: Standart

e|---------------------------------------------------|
B|---------------------------------------------------|
G|-------------15b13h15p13p12--13--------------------|
D|/8-8-8-10------------------------------------------|
A|---------------------------------------------------|
E|---------------------------------------------------|

e|-----------------------------------------------------------------------------------|
B|---------16-16--------------------------------16-16--------------------------------|
G|-----13--------13--13-13-13-13----------13-13-------13--13-13-13-13----------/13---|
D|-------------------------------13-13-13-----------------------------13-13-13-------|
A|-----------------------------------------------------------------------------------|
E|-----------------------------------------------------------------------------------|

e|-/16-15-------------/16-15---------------------------------|
B|--------13-14-16-----------13-14-16---/18------------------|
G|-------------------------------------------15b17-13-15-----|
D|-----------------------------------------------------------|
A|-----------------------------------------------------------|
E|-----------------------------------------------------------|

e|--------------------------|
B|-------------13-11--------|
G|-13-12-13-15-------13-12--|    x4 
D|--------------------------|
A|--------------------------|
E|--------------------------|

e|---------------------------------------------------|
B|--16----------16----------16-----------16----18-----|
G|-----13-12-13----13-12-13----13-12-13-----13----13--|     First this Part
D|----------------------------------------------------|
A|----------------------------------------------------|
E|----------------------------------------------------|

e|----------------------------------------------------|
B|--16----------16----------16-----------16----18-----|
G|-----13-12-13----13-12-13----13-12-13-----13--------|     Then this Part
D|----------------------------------------------------|
A|----------------------------------------------------|
E|----------------------------------------------------|

e|--16----------16----------16----------16----18----16-----------16----------16----------16----18--|
B|-----15-17-15----15-17-15----15-17-15----15----15-----15-17-15----15-17-15----15-17-15----15-----|
G|-------------------------------------------------------------------------------------------------|
D|-------------------------------------------------------------------------------------------------|
A|-------------------------------------------------------------------------------------------------|
E|-------------------------------------------------------------------------------------------------|

e|--19b21-16------------------------------------------|
B|-----------19-18-16---------------------------------|
G|--------------------18-17-15------------------------|     x2
D|-----------------------------18-17-15---------------|
A|--------------------------------------18-16---------|
E|----------------------------------------------------|

***********************************

| /   Slide up
| h   Hummer-on
| p   Pull-off
| b   Bend

***********************************

            
            
Suggest correction
Creating personal tab
Creating personal tab
You can edit any tab online and save it as your Personal.

You can edit, replace or remove any tab part or add personal notes – all changes will be seen only by you.

Personal tabs can be accessed anytime from any device, even offline.
Learn more »
comments
print report bad tab
3 comments total.
0 reply
stratomaiden 130 Apr 22, 2016 10:46 PM, edited on April 25 2016, 01:54 am

way off. parts 3-5 are right though.

0 reply
stratomaiden 130 Apr 24, 2016 09:57 PM

way off but the parts (3 to 5) are pretty right though. everything else is off, doesn't sound like the solo.

0 reply
calvindc 12 Jun 29, 2016 06:03 PM, edited on July 5 2016, 03:05 am

yikes

guest
You may want to rate the tab now too:
select rating
Wanna post a correction for this tab? Suggest correction