Oops, an error
Loading. Please wait.

Everybody Get Dangerous tab

version 1
version 1

Whole song

by Weezer
7,637 views 3 this week
1 commentread comment
1 2 3 4 5
x 3
add to favorites
×
Save as Personal and add changes to this tab that will be seen only by you. Learn more ›
×
You can save this tab as Personal to edit and correct it or add notes. All changes will be seen only by you. Learn more »
launch autoscroll
font size
0
reset
how to read this tab
guitar tuner
edit
Autoscroll
slow
fast
+/-
esc
set tempo
stop
Author
Song: Everybody Get Dangerous
Artist: Weezer
Album: Weezer (Red Album)

tabbed: sanyosup ( scott.garzone@verizon.net )

Tuning: Standard

Intro/Verse 1
e------------------------------          |e----------|
B------------------------------          |B----------|
G---3-x-x-3--x--3--3--x-3--6---          |G--3---3---|
D---x-x-x-x--x--x--x--x-x--x---  (11X)   |D--x---x---|  (12th time)
A---1-x-x-1--x--1--1--x-1--4---          |A--1---1---|
E------------------------------          |E----------|


e------------------------------          |e----------|
B------------------------------          |B----------|
G---3-x-x-3--x--3--3--x-3--6---          |G--3---3---|
D---x-x-x-x--x--x--x--x-x--x---  (7X)    |D--x---x---|  (8th time)
A---1-x-x-1--x--1--1--x-1--4---          |A--1---1---|
E------------------------------          |E----------|

2nd Guitar (only last 7 times)^
e------------------------------|
B------------------------------|
G--------------------------6\--|
D--------------------------6\--|
A--------------------------4\--|
E------------------------------|
*\ slide down

Chorus
e---------------------------------------------------------------|
B---------------------------------------------------------------|
G---3---3-3--x-x-x-x---6--6--6--8---8-8--x-x-x-x----------------|
D---3---3-3--x-x-x-x---6--6--6--8---8-8--x-x-x-x---6--6--6------|   (X4)
A---1---1-1--x-x-x-x---4--4--4--6---6-6--x-x-x-x---6--6--6------|
E--------------------------------------------------4--4--4------|
((Fourth Time end on))
e--------|
B--------|
G--8-8---|
D--8-8---|
A--6-6---|
E--------|


Verse 2
e------------------------------          |e----------|
B------------------------------          |B----------|
G---3-x-x-3--x--3--3--x-3--6---          |G--3---3---|
D---x-x-x-x--x--x--x--x-x--x---  (7X)    |D--x---x---|  (8th time)
A---1-x-x-1--x--1--1--x-1--4---          |A--1---1---|
E------------------------------          |E----------|


e------------------------------          |e----------|
B------------------------------          |B----------|
G---3-x-x-3--x--3--3--x-3--6---          |G--3---3---|
D---x-x-x-x--x--x--x--x-x--x---  (7X)    |D--x---x---|  (8th time)
A---1-x-x-1--x--1--1--x-1--4---          |A--1---1---|
E------------------------------          |E----------|

2nd Guitar (only last 7 times)^
e------------------------------|
B------------------------------|
G--------------------------6\--|
D--------------------------6\--|
A--------------------------4\--|
E------------------------------|


Chorus
e---------------------------------------------------------------|
B---------------------------------------------------------------|
G---3---3-3--x-x-x-x---6--6--6--8---8-8--x-x-x-x----------------|
D---3---3-3--x-x-x-x---6--6--6--8---8-8--x-x-x-x---6--6--6------|   (X4)
A---1---1-1--x-x-x-x---4--4--4--6---6-6--x-x-x-x---6--6--6------|
E--------------------------------------------------4--4--4------|
((Fourth Time end on))
e--------|
B--------|
G--8-8---|
D--8-8---|
A--6-6---|
E--------|


Bridge ("There must be...")
e-------------------------------------------------|
B-------------------------------------------------|
G-------------------------8--8--8-8--8-8--8-8-----|
D---8--8--8-8--8-8--8-8---8--8--8-8--8-8--8-8-----|   (X8)
A---8--8--8-8--8-8--8-8---6--6--6-6--6-6--6-6-----|
E---6--6--6-6--6-6--6-6---6--6--6-6--6-6--6-6-----|


2nd Guitar (only last 4 times^ and continue until chorus)
(Distant, I don't know the exact pattern but these are the notes)
e---13--------13--13--13-------------|
B-----11--------11--11--11-----------|
G------------------------------------|
D------------------------------------|
A------------------------------------|
E------------------------------------|


Chorus
e---------------------------------------------------------------|
B---------------------------------------------------------------|
G---3---3-3--x-x-x-x---6--6--6--8---8-8--x-x-x-x----------------|
D---3---3-3--x-x-x-x---6--6--6--8---8-8--x-x-x-x---6--6--6------|   (X4)
A---1---1-1--x-x-x-x---4--4--4--6---6-6--x-x-x-x---6--6--6------|
E--------------------------------------------------4--4--4------|

End On
e---------|
B---------|
G--8-8-8--|
D--8-8-8--|
A--6-6-6--|
E---------|

Drum ending and that's all! Great Job! :D
Let me know about any changes/comments or anything~

            
            
Suggest correction
Creating personal tab
Creating personal tab
You can edit any tab online and save it as your Personal.

You can edit, replace or remove any tab part or add personal notes – all changes will be seen only by you.

Personal tabs can be accessed anytime from any device, even offline.
Learn more »
Give kudos to tab author, rate the tab!
1 2 3 4 5
comments
print report bad tab
1 comment total.
+1 reply
bluesteel17 10 Jun 14, 2008 09:17 PM

Alright...This tab is completely wrong. Sure if you wanna sort of get the tune down you can play it this way, but anyone that can hum a tune could have tabbed this out.

I'm gonna go tab it the correct way for everyone =0

guest
You may want to rate the tab now too:
select rating
Wanna post a correction for this tab? Suggest correction