Oops, an error
Loading. Please wait.

Girl We Got A Good Thing solo tab

by Weezer
604 views 15 this week
no commentswrite comment
1 2 3 4 5
2 more votes to show rating
add to favorites
×
Save as Personal and add changes to this tab that will be seen only by you. Learn more ›
×
You can save this tab as Personal to edit and correct it or add notes. All changes will be seen only by you. Learn more »
launch autoscroll
font size
0
reset
how to read this tab
guitar tuner
edit
Autoscroll
slow
fast
+/-
esc
set tempo
stop
About this tab version
Includes lead guitar tab for the solo. Was this info helpful? Yes No
Song: (Girl We Got A) Good Thing
Artist: Weezer
Album: Weezer (White Album) (2016)
Track: 4

Solo starts at 2:19, played with two guitars. Sounds great if it's played solo on an acoustic guitar, too.
Please comment any corrections or email me, Danny Renkas, at agent.dgr.dabest@gmail.com


Guitar 1
e|-12b14-12----12-----------------------------------------------------------|
B|----------14----14-12h14p12----12--------12-12-------12-14----------------|
G|----------------------------13-----13h14-------13h14-------14b16r14-11-14-|
D|--------------------------------------------------------------------------|
A|--------------------------------------------------------------------------|
E|--------------------------------------------------------------------------|


Guitar 2
e|-7b9-7---7-----------------------------------------|
B|-------9---9-7h9p7---7------7-7-----7-9------------|
G|-------------------8----8h9-----8h9-----9b11r9-6-9-|
D|---------------------------------------------------|
A|---------------------------------------------------|
E|---------------------------------------------------|


Then Guitars 1 and 2 play in unison*...
e|-12-12-12-14-------------------|
B|-------------14b16r14-12-12-14-|
G|-------------------------------|
D|-------------------------------|
A|-------------------------------|
E|-------------------------------|

Then Guitar 1 plays, and Guitar 2 echoes...
e|-16h17-19-|
B|----------|
G|----------|
D|----------|
A|----------|
E|----------|

*Note: for the part played in unison, Rivers Cuomo plays up one octave from what is written.

The solo can also be played on one guitar (still tuned 1/2 step down).

e|-12/14-12-9-12-9-7h9p7-4-7--4/5h7-7-4/5h7-9-5/7\5-------12-12-12-14-------------------16/17-19--16/17-19-|
B|-12/14-12-9-12-9-7h9p7-4-7--4/5h7-7-4/5h7-9-5/7\5-7/10--------------14b16r14-12-12-14--------------------|
G|--------------------------------------------------6/9---------------------------------13/14-16--13/14-16-|
D|---------------------------------------------------------------------------------------------------------|
A|---------------------------------------------------------------------------------------------------------|
E|---------------------------------------------------------------------------------------------------------|



************************************

| h  Hammer-on
| p  Pull-off
| r  Release
| b  Bend
| /  Slide up
| \  Slide down

************************************

            
            
Suggest correction
Creating personal tab
Creating personal tab
You can edit any tab online and save it as your Personal.

You can edit, replace or remove any tab part or add personal notes – all changes will be seen only by you.

Personal tabs can be accessed anytime from any device, even offline.
Learn more »
Give kudos to tab author, rate the tab!
1 2 3 4 5
comments
print report bad tab
guest
You may want to rate the tab now too:
select rating
Wanna post a correction for this tab? Suggest correction