Oops, an error
Loading. Please wait.

Hash Pipe Tab

version 1
version 1
178,537 views 258 this week
17 commentsread comments
1 2 3 4 5
accurate
x 64
add to favorites
launch autoscroll
font size
0
reset
how to read this tab
guitar tuner
Autoscroll
slow
fast
+/-
esc
set tempo
stop
Help us to improve Ultimate-Guitar.com Take our survey!
×
[Intro/Verse]

e|------------------|
B|------------------|
G|-2-2-4-5--2-2-4-5-| Repeat a lot.
D|-2-2-4-5--2-2-4-5-|
A|-0-0-2-3--0-0-2-3-|
E|------------------|
pm__________________


[Pre-Chorus]

e|---------------------------------------------------|
B|---------------------------------------------------|
G|-7-7-7-7-7-7-7-7---------------------7-7-7-7-7-7-7-|
D|-7-7-7-7-7-7-7-7--7-7-9-10--7-7-9-10-7-7-7-7-7-7-7-|
A|-5-5-5-5-5-5-5-5--7-7-9-10--7-7-9-10-5-5-5-5-5-5-5-|
E|------------------5-5-7--8--5-5-7--8---------------|


[Chorus]

e|---------------------------------------------------|
B|---------------------------------------------------|
G|-----------------------7-7-7-7-7-7-7-7-5-5-5-5-5-5-|
D|-3-3-3-3-3-2-2-2-2-2-2-7-7-7-7-7-7-7-7-5-5-5-5-5-5-|
A|-3-3-3-3-3-2-2-2-2-2-2-5-5-5-5-5-5-5-5-3-3-3-3-3-3-|
E|-1-1-1-1-1-0-0-0-0-0-0-----------------------------|

e|-------------------------|
B|-------------------------|
G|-7-7-7-4-4-4-4-4-4-4-4-4-|
D|-7-7-7-4-4-4-4-4-4-4-4-4-|
A|-5-5-5-2-2-2-2-2-2-2-2-2-|
E|-------------------------|

Go back to intro, verse and chorus


[Verse]

e|------------------|
B|------------------|
G|-2-2-4-5--2-2-4-5-| Repeat a lot.
D|-2-2-4-5--2-2-4-5-|
A|-0-0-2-3--0-0-2-3-|
E|------------------|
pm__________________


[Chorus]

e|---------------------------------------------------|
B|---------------------------------------------------|
G|-----------------------7-7-7-7-7-7-7-7-5-5-5-5-5-5-|
D|-3-3-3-3-3-2-2-2-2-2-2-7-7-7-7-7-7-7-7-5-5-5-5-5-5-|
A|-3-3-3-3-3-2-2-2-2-2-2-5-5-5-5-5-5-5-5-3-3-3-3-3-3-|
E|-1-1-1-1-1-0-0-0-0-0-0-----------------------------|

e|-------------------------|
B|-------------------------|
G|-7-7-7-4-4-4-4-4-4-4-4-4-|
D|-7-7-7-4-4-4-4-4-4-4-4-4-|
A|-5-5-5-2-2-2-2-2-2-2-2-2-|
E|-------------------------|


[Post-chorus]

(In the last two chorus)

e|-----------------------|
B|-----------------------|
G|-----------------------|
D|-0-0-0-0-0-0-0-0-0-0-0-|
A|-2-2-2-2-2-2-2-2-2-2-2-|
E|-3-3-3-3-3-3-3-3-3-3-3-|


[Solo]

E|--------------------------------------------------| 
B|-13-13-13-13-12-12-12-12-10-10-10-10-8-8-8-8------| 
G|--------------------------------------------------| 
D|-10-10-10-10-9--9--9--9--7--7--7--7--5-5-5-5------| 
A|--------------------------------------------------|
E|--------------------------------------------------| 

E|-12-12-12-12-10-10-10-10-8-8-8-8-7-7-7-7----------|
B|--------------------------------------------------|
G|-9--9--9--9--7--7--7--7--5-5-5-5-4-4-4-4----------| 
D|--------------------------------------------------|
A|--------------------------------------------------|
E|--------------------------------------------------| 

E|-15-15-15-15-14-14-14-14-12-12-12-12-10-10-10-----| 
B|--------------------------------------------------|
G|-12-12-12-12-11-11-11-11-9--9--9--9--7--7--7------|
D|--------------------------------------------------| 
A|--------------------------------------------------| 
E|--------------------------------------------------|

E|--------------------------------------------------| 
B|-12-12-12-12-10-10-10-10-12-12-12-12-10-10-10-10--| 
G|--------------------------------------------------| 
D|-9--9--9--9--7--7--7--7--9--9--9--9--7--7--7--7---| 
A|--------------------------------------------------|
E|--------------------------------------------------|
Suggest correction
What's this?
You can suggest a correction to this tab. Community and Mods will review your correction and vote to approve or reject it.
comments
print report bad tab
17 comments total. Showing first comments.
0 reply
masterbasser45 0 wrote on May 15 2002, 12:00 am

whayadoing big-boy

0 reply
RaTm4ever 44 wrote on August 31 2002, 12:00 am

cOol. :)

0 reply
spiderman86 363 wrote on October 23 2002, 12:00 am

nice tab:)

guest
You may want to rate the tab now too:
select rating
Please do not post tabs as comments. Select "correction" instead!