Oops, an error
Loading. Please wait.

I Just Threw Out The Love Of My Dreams bass

version 1
version 1

Whole song

Interactive

by Weezer
1,813 views 3 this week
no commentswrite comment
1 2 3 4 5
1 last vote to show rating
add to favorites
×
Save as Personal and add changes to this tab that will be seen only by you. Learn more ›
×
You can save this tab as Personal to edit and correct it or add notes. All changes will be seen only by you. Learn more »
launch autoscroll
font size
0
reset
guitar tuner
edit
Autoscroll
slow
fast
+/-
esc
set tempo
stop
Artist: Weezer
Song: I Just Threw Out The Love Of My Dreams
Album: The Good Life (EP)


One of my favourite Weezer songs and loads of fun to play! This is my first tab so 
probably a few mistakes... e-mail corrections to mymategoo@gmail.com.


Tuning: Eb Ab Db Gb


VERSE 1

Gb|--------------------------------------------------------------------|
Db|--------------------------------------------------------------------|
Ab|-----2-2-----0-0-----2-2-----0-0-----2-2-----0-0-----2-2-----0-0----|
Eb|-2-2-----0-0-----2-2-----0-0-----2-2-----0-0-----2-2-----0-0--------|

CHORUS

Gb|--------------------------------------------------------------------|
Db|-----------------------------------------2420-0-----------2420-0----|
Ab|-----2-2/7975454-----2-2/7975454-----2-2-----4-42-----2-2-----4-42--|
Eb|-2-2-------------2-2-------------2-2--------------2-2---------------|

BRIDGE

Gb|-------------------------------------------------------------------------|
Db|-------------------------------------------------------------------------|
Ab|-2h4-4-4--2h4-4-4--2h4-4-4--2h4-4-4--4h5-5-5--4h5-5-5--4h5-5-5--4h5-5-5--|
Eb|-------------------------------------------------------------------------|

Gb|-------------------------------------------------------------------------|
Db|-------------------------------------------------------------------------|
Ab|-0h2-2-2--0h2-2-2--0h2-2-2--0h2-2-2--5h7-7-7--5h7-7-7--5h7-7-7--5h7-7----|
Eb|-------------------------------------------------------------------------|

VERSE 2

Gb|-------------------------------------------------------------------|
Db|-------------------------------------------------------------------|
Ab|-----2-2-----0-0-----2-2-----0-0-----2-2-----0-0-----2-2-----0-0---|
Eb|-2-2-----0-0-----2-2-----0-0-----2-2-----0-0-----2-2-----0-0-------|

CHORUS

Gb|--------------------------------------------------------------------|
Db|-----------------------------------------2420-0-----------2420-0----|
Ab|-----2-2/7975454-----2-2/7975454-----2-2-----4-42-----2-2-----4-42--|
Eb|-2-2-------------2-2-------------2-2--------------2-2---------------|

BRIDGE

Gb|-------------------------------------------------------------------------|
Db|-------------------------------------------------------------------------|
Ab|-2h4-4-4--2h4-4-4--2h4-4-4--2h4-4-4--4h5-5-5--4h5-5-5--4h5-5-5--4h5-5-5--|
Eb|-------------------------------------------------------------------------|

Gb|-------------------------------------------------------------------------|
Db|-------------------------------------------------------------------------|
Ab|-0h2-2-2--0h2-2-2--0h2-2-2--0h2-2-2--5h7-7-7--5h7-7-7--5h7-7-7--5h7-7----|
Eb|-------------------------------------------------------------------------|

SOLO

Gb|-------------------------------------------------------------------|
Db|-------------------------------------------------------------------|
Ab|-----2-2/7975454-----2-2/7975454-----2-2/7975454--245420-00--------|
Eb|-2-2-------------2-2-------------2-2-------------2------4----------|

BRIDGE

Gb|-------------------------------------------------------------------------|
Db|-------------------------------------------------------------------------|
Ab|-4-4-4-4--4-4-4-4--4-4-4-4--4-4-4-4--5-5-5-5--5-5-5-5--5-5-5-5--5-5-5-5--|
Eb|-------------------------------------------------------------------------|

Gb|-------------------------------------------------------------------------|
Db|-------------------------------------------------------------------------|
Ab|-2-2-2-2--2-2-2-2--2-2-2-2--2-2-2-2--7-7-7-7--7-7-7-7--7-7-7-7--7-7-7-7--|
Eb|-------------------------------------------------------------------------|

Gb|-------------------------------------------------------------------------|
Db|-------------------------------------------------------------------------|
Ab|-2h4-4-4--2h4-4-4--2h4-4-4--2h4-4-4--4h5-5-5--4h5-5-5--4h5-5-5--4h5-5-5--|
Eb|-------------------------------------------------------------------------|

Gb|-------------------------------------------------------------------------|
Db|-------------------------------------------------------------------------|
Ab|-0h2-2-2--0h2-2-2--0h2-2-2--0h2-2-2--7-7-7--7-7-7--7-7-7--7-7-7--7-7-7---|
Eb|-------------------------------------------------------------------------|

CHORUS

Gb|--------------------------------------------------------------|
Db|-----------------------------------------2420-0---------------|
Ab|-----2-2/7975454-----2-2/7975454-----2-2-----4-42--245420-00--|
Eb|-2-2-------------2-2-------------2-2--------------2------4----|


| /  slide up
| \  slide down
| h  hammer-on
| p  pull-off
| ~  vibrato
| +  harmonic
| x  Mute note
===============================================================================

            
            
Suggest correction
Creating personal tab
Creating personal tab
You can edit any tab online and save it as your Personal.

You can edit, replace or remove any tab part or add personal notes – all changes will be seen only by you.

Personal tabs can be accessed anytime from any device, even offline.
Learn more »
Give kudos to tab author, rate the tab!
1 2 3 4 5
comments
print report bad tab
guest
Wanna post a correction for this tab? Suggest correction