Oops, an error
Loading. Please wait.

I Swear Its True tab

version 1
version 1

Whole song

Interactive

by Weezer
4,197 views 12 this week
1 commentread comment
1 2 3 4 5
x 4
add to favorites
×
Save as Personal and add changes to this tab that will be seen only by you. Learn more ›
×
You can save this tab as Personal to edit and correct it or add notes. All changes will be seen only by you. Learn more »
launch autoscroll
font size
0
reset
how to read this tab
guitar tuner
edit
Autoscroll
slow
fast
+/-
esc
set tempo
stop
Artist: Weezer
Song: I Swear It's True
Album: Blue Album Deluxe Edition

Main Riff: (Played throughout the entire song, except the bridge):
   
Eb---------------------------
Bb---------------------------
Gb------------6--4----6------
Db-2----4--6--6--4----6--6--4
Ab-2----4--6--4--2----4--6--4
Eb-0----2--4-------------4--2

Intro: (Keyboard)
          Uuuuhhh     Huh   Huh
Eb-12~-----(12)----\------5----5
Bb------------------------------
Gb------------------------------
Db------------------------------
Ab------------------------------
Eb------------------------------

Verse 1:
It's been two and a half years now
That we've been apart
I've been kinda spaced out lately
Can't seem to get you out, of my mind

Chorus: (Keybord arranged for Guitar)
   I really miss you girl    
Eb-------------------------/16----(16)\-14-\-12
Bb---------------------------------------------
Gb---------------------------------------------
Db---------------------------------------------
Ab---------------------------------------------
Eb---------------------------------------------

   I really do
eb-------------------------/16----(16)\-14-\-12
Bb---------------------------------------------
Gb---------------------------------------------
Db---------------------------------------------
Ab---------------------------------------------
Eb---------------------------------------------

  You think I'm crazy but
eb-------------------------/16----(16)\-14-\-11
Bb---------------------------------------------
Gb---------------------------------------------
Db---------------------------------------------
Ab---------------------------------------------
Eb---------------------------------------------
  I swear it's true


Post Chorus:
Eb----------------------------------
Bb---5-----5-----5---------5-----5--
Gb------8----8-8--------------8----8
Db----------------------------------
Ab----------------------------------
Eb----------------------------------

Verse 2:
You think I'd have given up
Found somebody new
But no girl's got what you got
I belong to you

Bridge (x2): (Keyboard)
  Bb5
                   Oh-oh-whoa-oh-whoa
Eb-11h12p11h12p11--------------
Bb-----------------------------
Gb-----------------------------
Db-----------------------------
Ab-----------------------------
Eb-----------------------------
  Ab5
                Oh-oh-whoa-oh-whoa-oo
Eb-9h11p9h11p9-----------------
Bb-----------------------------
Gb-----------------------------
Db-----------------------------
Ab-----------------------------
Eb-----------------------------

Guitar solo:
Eb-------------------------------15b16-15b16--14-12------------
Bb-9-------------------------------------------------16-14-12~-
Gb-x----------------\------------------------------------------
Db-9-----------(pick\scrape)-----------------------------------
Ab-7----------------\------------------------------------------
Eb-------------------------------------------------------------

Eb-17b19--16-14-16-----------------------------------
Bb------------------16~--14-12---14------------------
Gb----------------------------------13---11----------
Db------------------------------------------13-14-13~
Ab---------------------------------------------------
Eb---------------------------------------------------

Outro: (Keyboard arranged for Guitar)
   I swear it's true   (I  swear it's true)
Eb----------------------16-14----16---12---------
Bb-----------------------------------------------
Gb-----------------------------------------------
Db-----------------------------------------------
Ab-----------------------------------------------
Eb-----------------------------------------------
Suggest correction
Creating personal tab
Creating personal tab
You can edit any tab online and save it as your Personal.

You can edit, replace or remove any tab part or add personal notes – all changes will be seen only by you.

Personal tabs can be accessed anytime from any device, even offline.
Learn more »
comments
print report bad tab
1 comment total.
+2 reply
dougiecrystals 50 Sep 09, 2004 08:00 PM

good tab overall but really is it just me or does it sound more like this
Eb-----------------------------
Bb-----------------------------
Gb------------6--4------------
Db-2----4--6--6--4----4--6--4--2-
Ab-2----4--6--4--2----4--6--4--0-
Eb-0----2--4----------2--4--2--0-

really i swear its true ....i havent see this song tabbed the same twice.....but i think my version sounds exactly like it...but maybe thats just me....anywus good tab ...

guest
You may want to rate the tab now too:
select rating
Wanna post a correction for this tab? Suggest correction