Oops, an error
Loading. Please wait.

If Youre Wondering If I Want You To I Want You To Tab

version 1
version 1

Whole song

Interactive

82,906 views 60 this week
7 commentsread comments
1 2 3 4 5
accurate
x 13
add to favorites
launch autoscroll
font size
0
reset
how to read this tab
guitar tuner
Tab Pro tools
  • play this tab
  • loop segment
  • change instrument
  • show fretboard
  • metronome
Autoscroll
slow
fast
+/-
esc
set tempo
stop
Contributor
riff (I Don't Know if it's the bass or guitar for intro
e------------|
b------------|
g------------|
d------------|
a-5-5--5-----|
e--------7-5-|

intro (palm mute several times.  play in any rhythm)
e---------|
b---------|
g-7-7-7-7-|
d-7-7-7-7-|
a-5-5-5-5-|
e---------|

verse (guitar is played very quietly behind bass)
bass
g-----play------  -----play-------  ----------  ---------------------|
d------4x------   ------4x-------   ----------  ---------------------|
a-5-5--5-----5-   --2-2--2-----2-   ----------  ---------------------|
e--------7-5---   ---------5-2---   -33333333-  -6-6-6h8p6--555555---|

guitar 
e-10-10--1010-1010-  -7-7--77-77-  -3-3--33-33-  -6-6--6/5-55-  -10-10--1010-1010-|
b-10-10--1010-1010-  -7-7--77-77-  -3-3--33-33-  -6-6--6/5-55-  -10-10--1010-1010-|
g-11-11--1111-1111-  -8-8--88-88-  -4-4--44-44-  -7-7--7/6-66-  -11-11--1111-1111-|
d-12-12--1212-1212-  -9-9--99-99-  -5-5--55-55-  -8-8--8/7-77-  -12-12--1212-1212-|
a---------------------------------------------------------------------------------|
e-----play 2x-----------play 2x--------play 1x-------play 1x-----------play 2x----|

chorus 1 (Guitar)
e---------------------------------------------------|
b---------------------------------------------------|
g-777777777-44444444-------------------777777777777-|
d-777777777-44444444-55555555-77777777-777777777777-|
a-555555555-22222222-55555555-77777777-555555555555-|
e-555555555-22222222-33333333-55555555-555555555555-|

bass
g---------------------------------------------------|
d---------------------------------------------------|
a-555555555-22222222-------------------555555555555-|
e--------------------33333333-55555555--------------|

2nd verse (Guitar is Same)
Bass has little fill along the lower e string after first part of the verse
g-------------------------|
d-------------------------|
a-------------------------|
e-101010-999-888-777-66-5-|

chorus 2 (Guitar)
e--------------------------------------------------|
b--------------------------------------------------|
g-77777777-44444444--------------------------------|
d-77777777-44444444-55555555-77777777-999999999999-|
a-55555555-22222222-55555555-77777777-999999999999-|
e-55555555-22222222-33333333-55555555-777777777777-|

e--------------------------------------------------|
b--------------------------------------------------|
g-77777777-44444444-------------------777777777777-|
d-77777777-44444444-55555555-77777777-777777777777-|
a-55555555-22222222-55555555-77777777-555555555555-|
e-55555555-22222222-33333333-55555555-555555555555-|

bass
g--------------------------------------------------|
d--------------------------------------------------|
a-55555555-22222222--------------------------------|
e-------------------33333333-55555555-777777777777-|

g--------------------------------------------------|
d--------------------------------------------------|
a-55555555-22222222-------------------555555555555-|
e-------------------33333333-55555555--------------|

bridge (not in it's rhythm)
e-3333--0000--1111--2222--3333--2222--0000--0000-|
b-3333--2222--2222--3333--3333--2222--2222--2222-|
g-0000--2222--3333--4444--4444--2222--2222--0000-|
d-0000--2222--3333--4444--5555--4444--2222--2222-|
a-2222--0000--1111--2222--5555--4444--0000--0000-|
e-3333--------------------3333--2222-------------|
comments
print report bad tab
7 comments total. Showing first comments.
0 reply
guitarguru1393 wrote on October 22 2009, 01:37 am

This tab sounds right, but I just got done watching Weezer play this live on their myspace secret show, and it was played with a capo on either the 2nd or 3rd fret. I'm going to try to figure out the chords and strumming patters, but if someone else could do it first, I won't complain.

0 reply
CoIby wrote on November 7 2009, 06:05 pm

Sounds pretty good. The verse sounds a bit off, though.

+1 reply
j.grass wrote on November 23 2009, 09:46 pm

the verse is fine you just have to listen to how its played this is the best tab ive seen of it better than version 1 & 3

I want to post or [tab]
guest
You may want to rate the tab now too:
select rating
Please do not post tabs as comments. Select "correction" instead!