Oops, an error
Loading. Please wait.

If Youre Wondering If I Want You To I Want You To Tab

version 1
version 1

Whole song

Interactive

87,371 views 69 this week
7 commentsread comments
1 2 3 4 5
x 14
add to favorites
launch autoscroll
font size
0
reset
how to read this tab
guitar tuner
×
Best way to learn
"If Youre Wondering If I Want You To I Want You To"
Autoscroll
slow
fast
+/-
esc
set tempo
stop
 [Riff] (I Don't Know if it's the bass or guitar for intro
e|------------|
B|------------|
G|------------|
D|------------|
A|-5-5--5-----|
E|--------7-5-|

 [Intro] (palm mute several times.  play in any rhythm)
e|---------|
B|---------|
G|-7-7-7-7-|
D|-7-7-7-7-|
A|-5-5-5-5-|
E|---------|

[Verse] (guitar is played very quietly behind bass)
bass
G|-----play------|-----play------|----------|---------------------|
D|------4x-------|------4x-------|----------|---------------------|
A|-5-5--5-----5--|--2-2--2-----2-|----------|---------------------|
E|--------7-5----|---------5-2---|-33333333-|-6-6-6h8p6--555555---|

 [guitar]
e|-10-10--1010-1010-|-7-7--77-77-|-3-3--33-33-|-6-6--6/5-55-|-10-10--1010-1010-|
B|-10-10--1010-1010-|-7-7--77-77-|-3-3--33-33-|-6-6--6/5-55-|-10-10--1010-1010-|
G|-11-11--1111-1111-|-8-8--88-88-|-4-4--44-44-|-7-7--7/6-66-|-11-11--1111-1111-|
D|-12-12--1212-1212-|-9-9--99-99-|-5-5--55-55-|-8-8--8/7-77-|-12-12--1212-1212-|
A|------------------|------------|------------|-------------|------------------|
E|-----play 2x------|---play 2x--|----play 1x-|----play 1x--|-------play 2x----|

 [Chorus 1] (Guitar)
e|---------------------------------------------------|
B|---------------------------------------------------|
G|-777777777-44444444-------------------777777777777-|
D|-777777777-44444444-55555555-77777777-777777777777-|
A|-555555555-22222222-55555555-77777777-555555555555-|
E|-555555555-22222222-33333333-55555555-555555555555-|

[Bass]
E|---------------------------------------------------|
A|---------------------------------------------------|
D|-555555555-22222222-------------------555555555555-|
G|--------------------33333333-55555555--------------|

[2nd verse] (Guitar is Same)
Bass has little fill along the lower e string after first part of the verse
G|-------------------------|
D|-------------------------|
A|-------------------------|
E|-101010-999-888-777-66-5-|

[Chorus 2] (Guitar)
e|--------------------------------------------------|
B|--------------------------------------------------|
G|-77777777-44444444--------------------------------|
D|-77777777-44444444-55555555-77777777-999999999999-|
A|-55555555-22222222-55555555-77777777-999999999999-|
E|-55555555-22222222-33333333-55555555-777777777777-|

e|--------------------------------------------------|
B|--------------------------------------------------|
G|-77777777-44444444-------------------777777777777-|
D|-77777777-44444444-55555555-77777777-777777777777-|
A|-55555555-22222222-55555555-77777777-555555555555-|
E|-55555555-22222222-33333333-55555555-555555555555-|

 [Bass]
G|--------------------------------------------------|
D|--------------------------------------------------|
A|-55555555-22222222--------------------------------|
E|-------------------33333333-55555555-777777777777-|

G|--------------------------------------------------|
D|--------------------------------------------------|
A|-55555555-22222222-------------------555555555555-|
E|-------------------33333333-55555555--------------|

 [Bridge] (not in it's rhythm)
e|-3333--0000--1111--2222--3333--2222--0000--0000-|
B|-3333--2222--2222--3333--3333--2222--2222--2222-|
G|-0000--2222--3333--4444--4444--2222--2222--0000-|
D|-0000--2222--3333--4444--5555--4444--2222--2222-|
A|-2222--0000--1111--2222--5555--4444--0000--0000-|
E|-3333--------------------3333--2222-------------|

************************************

| x  Dead note
| h  Hammer-on
| p  Pull-off
| /  Slide up

************************************
Suggest correction
comments
print report bad tab
7 comments total. Showing first comments.
0 reply
guitarguru1393 50 Oct 21, 2009 09:37 PM

This tab sounds right, but I just got done watching Weezer play this live on their myspace secret show, and it was played with a capo on either the 2nd or 3rd fret. I'm going to try to figure out the chords and strumming patters, but if someone else could do it first, I won't complain.

0 reply
CoIby 20 Nov 07, 2009 01:05 PM

Sounds pretty good. The verse sounds a bit off, though.

+1 reply
j.grass 10 Nov 23, 2009 04:46 PM

the verse is fine you just have to listen to how its played this is the best tab ive seen of it better than version 1 & 3

guest
You may want to rate the tab now too:
select rating
Wanna post a correction for this tab? Suggest correction