Oops, an error
Loading. Please wait.
We have an official In The Garage tab made by UG professional guitarists. Check out the tab »
×
by Weezer
38,182 views 201 this week
2 commentsread comments
1 2 3 4 5
x 44
add to favorites
×
Save as Personal and add changes to this tab that will be seen only by you. Learn more ›
×
You can save this tab as Personal to edit and correct it or add notes. All changes will be seen only by you. Learn more »
launch autoscroll
font size
0
reset
transpose
0
reset
simplify chords
display chords
guitar tuner
edit
Autoscroll
slow
fast
+/-
esc
set tempo
stop
Strumming
There is no strumming pattern for this song yet. and get +5 IQ
[Intro]

     G           D              Am          Em
eb|-------------------------|-------0-----------------|
Bb|-0-----3--------------0--|-1-----------0-----------|
Gb|----0-----0--2-----------|----2-----2-----0-----0--|
Db|----------------4--------|-------------------2-----|
Ab|-------------5-----5-----|-0-----------------------|
Eb|-3-----------------------|-------------0-----------|

     G           D            C   G/B G/A G
eb|-------------------------|-------------------------|
Bb|-0-----3-----------0-----|-------------------------|
Gb|----0-----0--2--------2--|-0-----0--0--0-----------|
Db|----------------4--------|----2--------------------|
Ab|-------------5-----------|-3-----2--0--------------|
Eb|-3-----------------------|-------------3-----------|


[Verse]

 C                   D        E
I've got the Dungeon Master's Guide.
 C            D      E
I"ve got a 12-sided die.
 C         D    G
I've got Kitty Pryde
  C               G
And Nightcrawler too
 C               G
Waiting there for me.

        D Em               D Em
eb|----------0-----0--0--|-----0--0--0---|
Bb|------------0----0----|------0--0-----|
Gb|--------------0---0---|-------0--0----|
Db|----------------------|---------------|
Ab|----------------------|---------------|
Eb|----------------------|---------------|
    Yes I do,              I do

 C                D      E
I've got posters on the wall,
 C                 D     E
My favorite rock group, KISS
 C        D    G
I've got Ace Frehley
 C             G
I've got Peter Criss
 C               G
Waiting there for me
    D Em  D Em
Yes I do, I do


[Chorus]

 G       D     Am    Em
In the garage, I feel safe.
 G      D
No one cares

     C  G/B G/A G
eb|-0--0--------3--3--3|
Bb|-1--1--0--0--3--3--3|
Gb|-0--0--0--0--0--0--0|
Db|-2--2--0--0--0--0--0|
Ab|-3--3--2--0--2--2--2|
Eb|-------------3--3--3|
    about  my   ways.

 G      D          Am   Em
In the garage where I belong.
 G      D        C   G/B G/A G
No one hears me sing this song.
 C      G
In the garage 


[Instrumental]

     G           D              Am          Em
eb|-------------------------|-------0-----------------|
Bb|-0-----3--------------0--|-1-----------0-----------|
Gb|----0-----0--2-----------|----2-----2-----0-----0--|
Db|----------------4--------|-------------------2-----|
Ab|-------------5-----5-----|-0-----------------------|
Eb|-3-----------------------|-------------0-----------|

     G           D            C   G/B G/A G
eb|-------------------------|-------------------------|
Bb|-0-----3-----------0-----|-------------------------|
Gb|----0-----0--2--------2--|-0-----0--0--0-----------|
Db|----------------4--------|----2--------------------|
Ab|-------------5-----------|-3-----2--0--------------|
Eb|-3-----------------------|-------------3-----------|


[Verse]

 C                   D   E
I've got an electric guitar.
 C             D   E
I play my stupid songs.
 C              D     G
I write these stupid words
 C                G
And I love every one
 C                G
Waiting there for me.
    D Em  D Em
Yes I do, I do.


[Chorus]

 G       D     Am    Em
In the garage, I feel safe.
 G      D       C G/B G/A G
No one cares about my  ways
 G      D          Am   Em
In the garage where I belong.
 G      D        C   G/B G/A G
No one hears me sing this song.
 C      G
In the garage 
 C      G
In the garage. Neaarrah!


[Solo]

(played with harmonica)

C  D  E   
C  D  E
C  D  G   
C  G  C  G 
D Em   D Em


[Chorus]

 G       D     Am    Em
In the garage, I feel safe.
 G      D       C G/B G/A G
No one cares about my  ways
 G      D          Am   Em
In the garage where I belong.
 G      D        C   G/B G/A G
No one hears me sing this song.

 G       D     Am    Em
In the garage, I feel safe.
 G      D       C G/B G/A G
No one cares about my  ways
 G      D          Am   Em
In the garage where I belong.

 G      D     
No one hears me 
 Em      C    
No one hears me

 G      D     
No one hears me 
 Em      C    
No one hears me
 G      D        C   G/B G/A G
No one hears me sing this song.


[Outro]

Am       G 
C  Am    G 


Live at Criminal Records, 1994
http://www.youtube.com/watch?v=VkDw9doIITE



************************************

| b  Bend

************************************

            
            
Suggest correction
Creating personal tab
Creating personal tab
You can edit any tab online and save it as your Personal.

You can edit, replace or remove any tab part or add personal notes – all changes will be seen only by you.

Personal tabs can be accessed anytime from any device, even offline.
Learn more »
comments
print report bad tab
2 comments total.
+1 reply
maxz31 230 May 19, 2016 01:23 AM

Nice tab. In the verse section I prefer Em instead of the E here.

guest
You may want to rate the tab now too:
select rating
Wanna post a correction for this tab? Suggest correction