Oops, an error
Loading. Please wait.
We have an official Island In The Sun tab made by UG professional guitarists. Check out the tab »
×
by Weezer
124,665 views 45 this week
11 commentsread comments
1 2 3 4 5
x 61
add to favorites
×
Save as Personal and add changes to this tab that will be seen only by you. Learn more ›
×
You can save this tab as Personal to edit and correct it or add notes. All changes will be seen only by you. Learn more »
launch autoscroll
font size
0
reset
how to read this tab
guitar tuner
backing track
0:00
0:00
edit
Autoscroll
slow
fast
+/-
esc
set tempo
stop
Author
Unregistered
This is tabbed by me.

e|------------------------------------------------|
B|------------------------------------------------|
G|---7-9-7----------------------------------------|
D|---------10-9-10-9-7-9-7-7\5-4-5-5--------------|
A|------------------------------------------------|
E|------------------------------------------------|

e|------------------------------------------------|
B|------------------------------------------------|
G|---7-9-7----------------------------------------|
D|---------10-9-10-9-7-9-7-7\5-4-5-5~~~~~~--------|
A|------------------------------------------------|
E|------------------------------------------------|


************************************

| \  Slide down
| ~  Vibrato

************************************

            
            
Suggest correction
Creating personal tab
Creating personal tab
You can edit any tab online and save it as your Personal.

You can edit, replace or remove any tab part or add personal notes – all changes will be seen only by you.

Personal tabs can be accessed anytime from any device, even offline.
Learn more »
comments
print report bad tab
11 comments total. Showing first comments.
0 reply
mike45391 10 Aug 02, 2005 08:00 PM

mistake - oh yea UG Stranger already said it nevermind besides that its ... ok.. i guess close enough

0 reply
mike45391 10 Aug 02, 2005 08:00 PM

mistake - oh yea UG Stranger already said it nevermind besides that its ... ok.. i guess close enough

0 reply
echo1714 10 Feb 18, 2006 09:01 AM

horrible solo easrier to play:

------------------------------------------------------------------
-----3--5-3-------------------------------------------------------
-------------5-4-5-4------2--4-2----------------------------------
---------------------------------5-4-5-5--------------------------
------------------------------------------------------------------
------------------------------------------------------------------

guest
Wanna post a correction for this tab? Suggest correction