Oops, an error
Loading. Please wait.

Island In The Sun Tab

version 1
version 1
323,890 views 243 this week
53 commentsread comments
1 2 3 4 5
accurate
x 100
add to favorites
launch autoscroll
font size
0
reset
how to read this tab
guitar tuner
Autoscroll
slow
fast
+/-
esc
set tempo
stop
Help us to improve Ultimate-Guitar.com Take our survey!
×
Author
------------------------------------------------------------
                ISLAND IN THE SUN - WEEZER
------------------------------------------------------------

By:IcEmAn

Tuning: Standard (EADGBe)

POD SETTINGS: Check Back

INTRO (Guitar1):
e|-3-3--5-5--2-2--3-3---------------------------------------
B|-5-5--5-5--3-3--3-3---------------------------------------
G|-4-4--5-5--2-2--4-4---------------------------------------
D|----------------------------------------------------------
A|----------------------------------------------------------
E|----------------------------------------------------------

VERSE (Guitar 2):
e|----------------------------------------------------------
B|----------------------------------------------------------
G|-9-9-------7-7--------------------------------------------
D|-9-9--7-7--7-7--5-5---------------------------------------
A|-7-7--7-7--5-5--5-5---------------------------------------
E|------5-5-------3-3---------------------------------------

CHORUS (Both Guitars):
e|----------------------------------------------------------
B|----------------------------------------------------------
G|-77777777-----------77777777-----------------------------
D|-77777777-55555555--77777777-55555555--------------------
A|-55555555-55555555--55555555-55555555--------------------
E|----------33333333-----------33333333---------------------

e|----------------------------------------------------------
B|----------------------------------------------------------
G|-55555555----------77777777-------------------------------
D|-55555555-77777777-77777777-------------------------------
A|-33333333-77777777-55555555-------------------------------
E|----------55555555----------------------------------------

SOLO (Guitar 1):
e|----------------------------------------------------------
B|----------------------------------------------------------
G|-7-9-7----------------------------------------------------
D|-------9-8-9-8--7-9-7\5-4-55------------------------------
A|----------------------------------------------------------
E|----------------------------------------------------------
    2x


Suggest correction new What's this?
You can suggest a correction to this tab. Community and Mods will review your correction and vote to approve or reject it.
comments
print report bad tab
53 comments total. Showing first comments.
0 reply
Staindboy 30 wrote on December 18 2001, 12:00 am

This Is Fantastic, Well Done On An Exellent Tab, 5 Stars

+1 reply
airhead4855` 0 wrote on December 22 2001, 12:00 am

Nice except I'm not to sure on the solo "9-8-9-8" but besides that 100% perfect

+1 reply
airhead4855` 0 wrote on December 22 2001, 12:00 am

It's "10-9-10-9" sorry for not figuring it out first.

guest
You may want to rate the tab now too:
select rating
Please do not post tabs as comments. Select "correction" instead!