Oops, an error
Loading. Please wait.

Island In The Sun Tab

version 1
version 1

Whole song

Video

8,522 views 975 this week
1 commentread comment
1 2 3 4 5
x 6
add to favorites
launch autoscroll
font size
0
reset
how to read this tab
guitar tuner
×
Best way to learn
"Island In The Sun"
Autoscroll
slow
fast
+/-
esc
set tempo
stop
Weezer,Island In The Sun.
Tabbed by Matt Gravish,meph_mg@yahoo.com.
  
Song:  Island In The Sun
Group: Weezer
Album: The Green Album
Tabbed By: Matt Gravish
  The first version of this song was so far off i couldn't believe it so i tabbed it myself.  Here it is.

   /=slide   p=pull off

Chords Used:
  Em  Am  D   G   D5  G5  C5  A5
e-7---5---5---3------------------
B-8---5---7---3------------------
G-9---5---7---4---7-------5------
D-9---7---7---5---7---5---5---7--
A-7---7---5---5---5---5---3---7--
E-----5-------3-------3-------5--

Intro/Verse: Em Am D G - repeat until chorus

Chorus: verse chords with:
e---3---3---5---5---2---2---3---3------
B-5---5---5---5---3---3---3---3--------
G--------------------------------------
D--------------------------------------
A--------------------------------------
E--------------------------------------

Bridge:(we'll run away together...)
D5-G5-D5-G5-C5-A5-G5

Solo:
e-----------------------------------------
B-----------------------------------------
G-----------------------------------------
D-----14p12-10-9-10-9------9-7------------
A-/14-------------------10-----10-9-10-10-
E-----------------------------------------
(on 2nd time, use A-10 as the first note)

Order of Song:
intro/verse-8
chorus------4
intro/verse-6
chorus------4
bridge------1
intro/verse-2
solo--------2
chorus------4
bridge------1
intro/verse-2
chorus------until song fades out  
:: Ultimate Guitar Archive :: 
http://www.ultimate-guitar.com 

Suggest correction
comments
print report bad tab
1 comment total.
0 reply
the_negro_puppy 20 Mar 12, 2002 07:00 PM

This is probably 90% Correct, good Job

guest
You may want to rate the tab now too:
select rating
Wanna post a correction for this tab? Suggest correction