Oops, an error
Loading. Please wait.

Island In The Sun Bass Tab

version 2
version 2

Whole song

37,279 views 54 this week
8 commentsread comments
1 2 3 4 5
excellent!
x 28
add to favorites
launch autoscroll
font size
0
reset
guitar tuner
Autoscroll
slow
fast
+/-
esc
set tempo
stop
Help us to improve Ultimate-Guitar.com Take our survey!
×
Island in the Sun
Weezer
This can be done in Eb, 
but i did it in E, cuz its easier...
Standard Tuning
Tabbed By: Taylor Smith

  Intro
G|--------------|
D|--/7-/12\7p0--|
A|--------------|
E|--------------|

  Intro/Verse play from 0:08-1:32
G|--------------------------|
D|--------------------------|
A|--7-7-00-0-5-5p0----2-5---|
E|-----------------3-3------|

  Chorus
G|------------------------------------------|
D|------------------------------------------|
A|--5555------5555------3333-----555555555--|
E|-------3333------3333------5555-----------|
 
  Postchorus/Solo/Verse 1:49-2:31
G|--------------------------|
D|--------------------------|
A|--7-7-00-0-5-5p0----2-5---|
E|-----------------3-3------|

Chorus
G|------------------------------------------|
D|------------------------------------------|
A|--5555------5555------3333-----555555555--|
E|-------3333------3333------5555-----------|

  Outro 2:48-3:20 (fades out)
G|--------------------------|
D|--------------------------|
A|--7-7-00-0-5-5p0----2-5---|
E|-----------------3-3------|
 
There ya go...
Suggest correction
comments
print report bad tab
8 comments total. Showing first comments.
0 reply
mac b 10 wrote on August 18 2006, 01:33 pm

good tab!!!

+5 reply
Pickleboy03 80 wrote on August 19 2006, 03:38 am

Very nice tab. Just to be random, and not to step on any toes, I find it a little bit funny that someone named SLIPKNOT made a Weezer tab, lol. Just struck me as funny, but nice tab man.

0 reply
SLIP(SIC)KNOT 539 wrote on April 25 2007, 08:23 pm

yeah, well i played it at church camp with some guys and the other tabs on here sucked, so i thought, why not send one in? yea it is kinda ironic lol..

guest
You may want to rate the tab now too:
select rating
Wanna post a correction for this tab? Suggest correction