Oops, an error
Loading. Please wait.
We have an official Island In The Sun tab made by UG professional guitarists. Check out the tab »
×
by Weezer
17,446 views 9 this week
6 commentsread comments
1 2 3 4 5
x 13
add to favorites
×
Save as Personal and add changes to this tab that will be seen only by you. Learn more ›
×
You can save this tab as Personal to edit and correct it or add notes. All changes will be seen only by you. Learn more »
launch autoscroll
font size
0
reset
how to read this tab
guitar tuner
backing track
0:00
0:00
edit
Autoscroll
slow
fast
+/-
esc
set tempo
stop
Author
#----------------------------------PLEASE NOTE--------------------------------#
#This file is the author's own work and represents their interpretation of the#
#song. You may only use this file for private study, scholarship, or research.#
#-----------------------------------------------------------------------------#

Weezer
Island In The Sun

Tabbed by Andres (la_laker83@hotmail.com)

***********************************************
Visit www.geocities.com/clubtabz for more tabs!
***********************************************

Hey there!

This is how I play the Intro, I'm sure these are the 3 notes for each chord
but they could be played on higher frets. I think they play it here because
of the G string's sound and progression

   Em       Am     D        G
E--3--3-3---5--5------------3--3----
B--5--5-5---5--5---7--7-7---3--3----
G--4--4-4---5--5---7--7-7---4--4----
D------------------7--7-7-----------
A-----------------------------------
E-----------------------------------
Verse is the same, only with a different rhythm


BRIDGE
The last part could be wrong, but I think I heard it like this
Besides, it's the G chord so it fits

   Em      Am      D       G
E-------------------------------------
B----8---8---8---8---7---7---8---8----
G--9---9---9---9---7---7---7---7------
D-------------------------------------
A-------------------------------------
E-------------------------------------


CHORUS
Heavy distortion

   D5 G5 D5 G5 C5 A5 D5
E-------------------------
B-------------------------
G--7-----7-----5--2--7----
D--7--5--7--5--5--2--7----
A--5--5--5--5--3--0--5----
E-----3-----3-------------


SOLO
I think it has some harmonics at the beginning of the first time
Play this twice

  Em     Am       D      G   Em     Am      D     G
E------------------------------------------------------
B------------------------------------------------------
G--7--9--7----\5--4---5--4-------4---------------------
D-----------------------------5-----7----5--4--5--5----
A------------------------------------------------------
E------------------------------------------------------


Hope it sounds good
Comments, questions and such go to la_laker83@hotmail.com
Suggest correction
Creating personal tab
Creating personal tab
You can edit any tab online and save it as your Personal.

You can edit, replace or remove any tab part or add personal notes – all changes will be seen only by you.

Personal tabs can be accessed anytime from any device, even offline.
Learn more »
comments
print report bad tab
6 comments total. Showing first comments.
0 reply
SEVENUPP2 0 Apr 03, 2002 07:00 PM

wow this is off

0 reply
tarche 0 Apr 12, 2002 08:00 PM

The chords are 100 % correct, some people just cant play guitar.

0 reply
madpistolpete 0 Apr 20, 2002 08:00 PM

You are a fucken retard!!!! You obviouisly cant play like me!!!! You probly take it up the ass from your mom

guest
You may want to rate the tab now too:
select rating
Wanna post a correction for this tab? Suggest correction