Oops, an error
Loading. Please wait.

Island In The Sun Tab

version 4
version 4

Whole song

Video

by Weezer
8,468 views 3 this week
1 commentread comment
1 2 3 4 5
x 7
add to favorites
launch autoscroll
font size
0
reset
how to read this tab
guitar tuner
backing track
0:00
0:00
×
Best way to learn
"Island In The Sun"
Autoscroll
slow
fast
+/-
esc
set tempo
stop
Author
Artist: Weezer
Title: Island in the Sun
Album: The Green Album
Tuning: Standard EADGBe
Tabbed By: Andrew Cavazos

This is my second tab. i think its pretty correct. Weezer has TWO guitarists, 
and ive seen that most people tab this song for only one... well i tabbed it 
for both guitars and when to play each part. email me with questions comments
and whatnot at memyselfandy@yahoo.com (i also have yahoo instant messenger) 
or if you have AIM, my s/n is ragnarokndc. If you have MSN messenger, my 
email is ragnarokndc@hotmail.com. enjoy!

Chords:        Em  Am  D   G
        e|-----0---0---2---3   
        B|-----0---0---3---3
        G|-----0---2---2---0
        D|-----2---2---0---0
        A|-----2---0---0---2
        E|-----0---0---0---3
 
#Intro
 Guitar 2-------> EmEm AmAm D D  G G
e|----------------3-3--5-5--2-2--3-3-------|<--Guitar 1
B|----------------5-5--5-5--3-3--3-3-------|<--plays this
G|----------------4-4--5-5--2-2--4-4-------|<--at the start
D|-----------------------------------------|<--and ends
A|-----------------------------------------|<--when singing
E|-----------------------------------------|<--starts
Guitar 2 comes in after Guitar 1 palys the intro twice,
playing the chords at the top

#Riff
guitar 2 plays this right before (and during the chorus the first chorus)
e|------------------ 
B|--8-8-8-8-7-7-8-8-
G|-9-9-9-9-7-7-7-7--
D|------------------
A|------------------
E|------------------
 
#Chorus (played by guitar 1 w/heavy distortion)
e|---------------------
B|---------------------
G|-7-----7-----5--2--7-
D|-7--5--7--5--5--2--7-
A|-5--5--5--5--3--0--5-
E|----3-----3----------

Solo (played by guitar 1 w/heavy distortion)
e|-----------------------------------
B|----------------------------------- 
G|-7-9-7-----------------------------   
D|-------10-9-10-9----9-7------------
A|-----------------10-----10-9-10-10-
E|-----------------------------------

and this is how its all put together:
Guitar 1                    |        Guitar 2
-------------------------------------------
Intro x2                    |           -
--------------------|----------------------
Intro x2                   |       Intro x2
--------------------|----------------------
-                   |       Intro x4    
--------------------|----------------------
riff x4             |       Intro x4
--------------------|----------------------
Intro x2            |       Intro x2
--------------------|----------------------
-                   |       Intro x4
--------------------|----------------------
riff x4             |       Intro x4
--------------------|----------------------
chorus x1           |           -
--------------------|----------------------
intro x2            |       Intro x2
--------------------|----------------------
Solo x2             |       Intro x4
--------------------|----------------------
riff x4             |       Intro x4
--------------------|----------------------
Chorus x1           |           -
--------------------|----------------------
intro x2            |       Intro x2
--------------------|----------------------
riff until end      |   Chorus until end


well i think thats about it... the order and stuff might be a little confusing, 
so if it is try to contact me and i'll help you out.
Suggest correction
comments
print report bad tab
1 comment total.
0 reply
Fiery Guitar 10 Apr 25, 2011 11:11 AM

Very poor work. Incomplete, unorganized, inaccurate, and you've got the chords all wrong.

guest
You may want to rate the tab now too:
select rating
Wanna post a correction for this tab? Suggest correction