Oops, an error
Loading. Please wait.

Miss Sweeney tab

version 1
version 1

Whole song

by Weezer
4,751 views 9 this week
no commentswrite comment
1 2 3 4 5
1 last vote to show rating
add to favorites
×
Save as Personal and add changes to this tab that will be seen only by you. Learn more ›
×
You can save this tab as Personal to edit and correct it or add notes. All changes will be seen only by you. Learn more »
launch autoscroll
font size
0
reset
how to read this tab
guitar tuner
edit
Autoscroll
slow
fast
+/-
esc
set tempo
stop
-----------------------------------------------------------------------
                             Miss Sweeney - Weezer
-----------------------------------------------------------------------

Tabbed by: cjpm105

Tuning: Guitar 1 (Acoustic) - Standard, half step down.
        Guitar 2 (Distorted)- Standard, half step down.
        Guitar 3 (Distorted)- Standard, half step down.

Key
/  slide up
\  slide down
h  hammer-on
p  pull-off
~  sustain
b  bend
r  release

Guitar 1 plays the chorus and bridge chords acoustically, Guitar 2 plays them
distorted, and Guitar 3 plays some single notes throughout the chorus and the verses.

Intro/ Verse(Acoustic)
Guitar 1
eb|--0----0--0-0-1--1-1/3-3-1-0--0----0--0-0-0--1-1/3-3-1-0--|
Bb|--2----2--2-2-3--3-3/5-5-3-2--2----2--2-2-3--3-3/5-5-3-2--|
Gb|--2----2--2-2-2--2-2/4-4-2-2--2----2--2-2-2--2-2/4-4-2-2--| 
Db|--2----2--2-2-0--0-0----------2----2--2-2-0--0-0----------|    
Ab|--0----0--0-0-----------------0----0--0-0-----------------|
Eb|----------------------------------------------------------|

eb|--0----0--0-0-1--1-1/3-3-1-0--0----0--0-0-0--1-1/3-3-1-0--|
Bb|--2----2--2-2-3--3-3/5-5-3-2--2----2--2-2-3--3-3/5-5-3-2--|
Gb|--2----2--2-2-2--2-2/4-4-2-2--2----2--2-2-2--2-2/4-4-2-2--| 
Db|--2----2--2-2-0--0-0----------2----2--2-2-0--0-0----------|    
Ab|--0----0--0-0-----------------0----0--0-0-----------------|
Eb|----------------------------------------------------------|

eb|--0----0--0-0-1--1-1/3-3-1-0--0----0--0-0-0--1-1/3-3-1-0--|
Bb|--2----2--2-2-3--3-3/5-5-3-2--2----2--2-2-3--3-3/5-5-3-2--|
Gb|--2----2--2-2-2--2-2/4-4-2-2--2----2--2-2-2--2-2/4-4-2-2--| 
Db|--2----2--2-2-0--0-0----------2----2--2-2-0--0-0----------|    
Ab|--0----0--0-0-----------------0----0--0-0-----------------|
Eb|----------------------------------------------------------|

eb|--0----0--0-0-1--1-1/3-3-1-0--0----0--0-0-0--1-1/3-3-1-0--|
Bb|--2----2--2-2-3--3-3/5-5-3-2--2----2--2-2-3--3-3/5-5-3-2--|
Gb|--2----2--2-2-2--2-2/4-4-2-2--2----2--2-2-2--2-2/4-4-2-2--| 
Db|--2----2--2-2-0--0-0----------2----2--2-2-0--0-0----------|    
Ab|--0----0--0-0-----------------0----0--0-0-----------------|
Eb|----------------------------------------------------------|

(0:53)
eb|--0----0--0-0-2----2--2-2-0----0-0--0-0----0--0-------|
Bb|--2----2--2-2-3----3--3-3-2----2-2--2-0----0--0-------|
Gb|--2----2--2-2-2----2--2-2-2----2-2--2-1----1--1-------| 
Db|--2----2--2-2-0----0--0-0-2----2-2--2-2----2--2-------|    
Ab|--0----0--0-0-------------0----0-0--0-2----2--2-------|
Eb|--------------------------------------0----0--0-------|

Chorus
Guitar 1
eb|--0--------0--------2-------2--------0--------0---------|
Bb|--2--------2--------3-------3--------2--------2---------|
Gb|--2--------2--------2-------2--------2--------2---------|
Db|--2--------2--------0-------0--------2--------2---------|
Ab|--0--------0-------------------------0--------0---------|
Eb|--------------------------------------------------------|
Guitar 2
eb|--------------------------------------------------------|
Bb|--------------------------------------------------------|
Gb|--------------------7--------7--------------------------| 
Db|--7--------7--------7--------7--------7--------7--------|    
Ab|--7--------7--------5--------5--------7--------7--------|
Eb|--5--------5--------5--------5--------5--------5--------|
Guitar 3
eb|--------------------------------------------------------|
Bb|-----------------------------------------------10-9-----|
Gb|----------------------------------------------------11--| 
Db|--------------------------------------------------------|    
Ab|--------------------------------------------------------|
Eb|--------------------------------------------------------|

Guitar 1
eb|--2--------2--------0--------2--------2--------2--------0-----------|
Bb|--3--------3--------2--------2--------3--------3--------0-----------|
Gb|--2--------2--------2--------2--------4--------4--------1-----------|
Db|--0--------0--------2--------4--------4--------4--------2-----------|
Ab|--------------------0--------4--------2--------2--------2-----------|
Eb|-----------------------------2--------------------------0-----------|
Guitar 2
eb|--------------------------------------------------------------------|
Bb|--------------------------------------------------------------------|
Gb|--7--------7--------------------------4--------4--------------------| 
Db|--7--------7--------7--------4--------4--------4--------2-----------|    
Ab|--5--------5--------7--------4--------2--------2--------2-----------|
Eb|--5--------5--------5--------2--------2--------2--------0-----------|
Guitar 3
eb|--------------------------------------------------------------------|
Bb|--------------------------------------------------------------------|
Gb|-----------------------------------------------6b7r6--4-------------| 
Db|--------------------------------------------------------------------| 
Ab|--------------------------------------------------------------------|
Eb|--------------------------------------------------------------------|


Second Verse
Guitar 1 
eb|--0----0--0-0-1--1-1/3-3-1-0--0----0--0-0-0--1-1/3-3-1-0--|
Bb|--2----2--2-2-3--3-3/5-5-3-2--2----2--2-2-3--3-3/5-5-3-2--|
Gb|--2----2--2-2-2--2-2/4-4-2-2--2----2--2-2-2--2-2/4-4-2-2--| 
Db|--2----2--2-2-0--0-0----------2----2--2-2-0--0-0----------|    
Ab|--0----0--0-0-----------------0----0--0-0-----------------|
Eb|----------------------------------------------------------|

Guitar 3
eb|----------------------------------------------------------|
Bb|--10h12p10h12p10h12p10h12p10------------------------------|
Gb|------------------------------10h11p10h11p10h11p10h11p10--| 
Db|----------------------------------------------------------|    
Ab|----------------------------------------------------------|
Eb|----------------------------------------------------------|

Guitar 1
eb|--0----0--0-0-1--1-1/3-3-1-0--0----0--0-0-0--1-1/3-3-1-0--|
Bb|--2----2--2-2-3--3-3/5-5-3-2--2----2--2-2-3--3-3/5-5-3-2--|
Gb|--2----2--2-2-2--2-2/4-4-2-2--2----2--2-2-2--2-2/4-4-2-2--| 
Db|--2----2--2-2-0--0-0----------2----2--2-2-0--0-0----------|    
Ab|--0----0--0-0-----------------0----0--0-0-----------------|
Eb|----------------------------------------------------------|

Guitar 3
eb|----------------------------------------------------------|
Bb|--10h12p10h12p10h12p10h12p10------------------------------|
Gb|------------------------------10h11p10h11p10h11p10h11p10--| 
Db|----------------------------------------------------------|    
Ab|----------------------------------------------------------|
Eb|----------------------------------------------------------|

Guitar 1
eb|--0----0--0-0-1--1-1/3-3-1-0--0----0--0-0-0--1-1/3-3-1-0--|
Bb|--2----2--2-2-3--3-3/5-5-3-2--2----2--2-2-3--3-3/5-5-3-2--|
Gb|--2----2--2-2-2--2-2/4-4-2-2--2----2--2-2-2--2-2/4-4-2-2--| 
Db|--2----2--2-2-0--0-0----------2----2--2-2-0--0-0----------|    
Ab|--0----0--0-0-----------------0----0--0-0-----------------|
Eb|----------------------------------------------------------|

eb|--0----0--0-0-2----2--2-2-0----0-0--0-0----0--0-------|
Bb|--2----2--2-2-3----3--3-3-2----2-2--2-0----0--0-------|
Gb|--2----2--2-2-2----2--2-2-2----2-2--2-1----1--1-------| 
Db|--2----2--2-2-0----0--0-0-2----2-2--2-2----2--2-------|    
Ab|--0----0--0-0-------------0----0-0--0-2----2--2-------|
Eb|--------------------------------------0----0--0-------|

Second Chorus
Guitar 1
eb|--0--------0--------2-------2--------0--------0---------|
Bb|--2--------2--------3-------3--------2--------2---------|
Gb|--2--------2--------2-------2--------2--------2---------|
Db|--2--------2--------0-------0--------2--------2---------|
Ab|--0--------0-------------------------0--------0---------|
Eb|--------------------------------------------------------|
Guitar 2
eb|--------------------------------------------------------|
Bb|--------------------------------------------------------|
Gb|--------------------7--------7--------------------------| 
Db|--7--------7--------7--------7--------7--------7--------|    
Ab|--7--------7--------5--------5--------7--------7--------|
Eb|--5--------5--------5--------5--------5--------5--------|
Guitar 3
eb|--------------------------------------------------------|
Bb|-----------------------------------------------10-9-----|
Gb|----------------------------------------------------11--| 
Db|--------------------------------------------------------|    
Ab|--------------------------------------------------------|
Eb|--------------------------------------------------------|

Guitar 1
eb|--2--------2--------0--------2--------2--------2--------0-----------|
Bb|--3--------3--------2--------2--------3--------3--------0-----------|
Gb|--2--------2--------2--------2--------4--------4--------1-----------|
Db|--0--------0--------2--------4--------4--------4--------2-----------|
Ab|--------------------0--------4--------2--------2--------2-----------|
Eb|-----------------------------2--------------------------0-----------|
Guitar 2
eb|--------------------------------------------------------------------|
Bb|--------------------------------------------------------------------|
Gb|--7--------7--------------------------4--------4--------------------| 
Db|--7--------7--------7--------4--------4--------4--------2-----------|    
Ab|--5--------5--------7--------4--------2--------2--------2-----------|
Eb|--5--------5--------5--------2--------2--------2--------0-----------|
Guitar 3
eb|--------------------------------------------------------------------|
Bb|--------------------------------------------------------------------|
Gb|-----------------------------------------------6b7r---4-------------| 
Db|--------------------------------------------------------------------| 
Ab|--------------------------------------------------------------------|
Eb|--------------------------------------------------------------------|

Bridge
Guitar 1
eb|--0--0--0--0--2--2--2--2--0--0--0--0--2--2--2--2--0--0--0--0--|
Bb|--2--2--2--2--3--3--3--3--2--2--2--2--3--3--3--3--2--2--2--2--|
Gb|--2--2--2--2--2--2--2--2--2--2--2--2--2--2--2--2--2--2--2--2--|
Db|--2--2--2--2--0--0--0--0--2--2--2--2--0--0--0--0--2--2--2--2--|
Ab|--0--0--0--0--------------0--0--0--0--------------0--0--0--0--|
Eb|--------------------------------------------------------------|
Guitar 2
eb|--------------------------------------------------------------|
Bb|--------------------------------------------------------------|
Gb|--------------7--7--7--7--------------7--7--7--7--------------| 
Db|--7--7--7--7--7--7--7--7--7--7--7--7--7--7--7--7--7--7--7--7--|    
Ab|--7--7--7--7--5--5--5--5--7--7--7--7--5--5--5--5--7--7--7--7--|
Eb|--5--5--5--5--5--5--5--5--5--5--5--5--5--5--5--5--5--5--5--5--|

Guitar 1
eb|--2--2--2--2--0--0--0--0--2--2--2--2--2--2--2--2--2--2--2--2--|
Bb|--3--3--3--3--2--2--2--2--3--3--3--3--2--2--2--2--3--3--3--3--|
Gb|--2--2--2--2--2--2--2--2--2--2--2--2--2--2--2--2--4--4--4--4--|
Db|--0--0--0--0--2--2--2--2--0--0--0--0--4--4--4--4--4--4--4--4--|
Ab|--------------0--0--0--0--------------4--4--4--4--2--2--2--2--|
Eb|--------------------------------------2--2--2--2--------------|
Guitar 2
eb|--------------------------------------------------------------|
Bb|--------------------------------------------------------------|
Gb|--7--7--7--7--------------7--7--7--7--------------4--4--4--4--| 
Db|--7--7--7--7--7--7--7--7--7--7--7--7--4--4--4--4--4--4--4--4--|    
Ab|--5--5--5--5--7--7--7--7--5--5--5--5--4--4--4--4--2--2--2--2--|
Eb|--5--5--5--5--5--5--5--5--5--5--5--5--2--2--2--2--2--2--2--2--|

Guitar 1
eb|--2--2--2--2--0-----------------------------------------------|
Bb|--2--2--2--2--0-----------------------------------------------|
Gb|--2--2--2--2--1-----------------------------------------------|
Db|--4--4--4--4--2-----------------------------------------------|
Ab|--4--4--4--4--2-----------------------------------------------|
Eb|--2--2--2--2--0-----------------------------------------------|
Guitar 2
eb|--------------------------------------------------------------|
Bb|--------------------------------------------------------------|
Gb|--------------------------------------------------------------| 
Db|--4--4--4--4--2~----------------------------------------------|    
Ab|--4--4--4--4--2~----------------------------------------------|
Eb|--2--2--2--2--0~----------------------------------------------|

Third Chorus
Guitar 1
eb|--0--------0--------2-------2--------0--------0---------|
Bb|--2--------2--------3-------3--------2--------2---------|
Gb|--2--------2--------2-------2--------2--------2---------|
Db|--2--------2--------0-------0--------2--------2---------|
Ab|--0--------0-------------------------0--------0---------|
Eb|--------------------------------------------------------|
Guitar 2
eb|--------------------------------------------------------|
Bb|--------------------------------------------------------|
Gb|--------------------7--------7--------------------------| 
Db|--7--------7--------7--------7--------7--------7--------|    
Ab|--7--------7--------5--------5--------7--------7--------|
Eb|--5--------5--------5--------5--------5--------5--------|
Guitar 3
eb|--------------------------------------------------------|
Bb|-----------------------------------------------10-9-----|
Gb|----------------------------------------------------11--| 
Db|--------------------------------------------------------|    
Ab|--------------------------------------------------------|
Eb|--------------------------------------------------------|

Guitar 1
eb|--2--------2--------0--------2--------2--------2--------0-----------|
Bb|--3--------3--------2--------2--------3--------3--------0-----------|
Gb|--2--------2--------2--------2--------4--------4--------1-----------|
Db|--0--------0--------2--------4--------4--------4--------2-----------|
Ab|--------------------0--------4--------2--------2--------2-----------|
Eb|-----------------------------2--------------------------0-----------|
Guitar 2
eb|--------------------------------------------------------------------|
Bb|--------------------------------------------------------------------|
Gb|--7--------7--------------------------4--------4--------------------| 
Db|--7--------7--------7--------4--------4--------4--------2-----------|    
Ab|--5--------5--------7--------4--------2--------2--------2-----------|
Eb|--5--------5--------5--------2--------2--------2--------0-----------|
Guitar 3
eb|--------------------------------------------------------------------|
Bb|--------------------------------------------------------------------|
Gb|-----------------------------------------------6b7r---4-------------| 
Db|--------------------------------------------------------------------| 
Ab|--------------------------------------------------------------------|
Eb|--------------------------------------------------------------------|

(3:10)
Guitar 1
eb|--0-----2-2-2-2-2-2-0--------0--------2--------2--------------|
Bb|--2-----3-3-3-3-3-3-2--------2--------3--------3--------------|
Gb|--2-----2-2-2-2-2-2-2--------2--------2--------2--------------|
Db|--2-----0-0-0-0-0-0-2--------2--------0--------0--------------|
Ab|--0-----------------0--------0--------------------------------|
Eb|--------------------------------------------------------------|
Guitar 2
eb|--------------------------------------------------------------|
Bb|--------------------------------------------------------------|
Gb|--------7-7-7-7-7-7-------------------7--------7--------------| 
Db|--7~----7-7-7-7-7-7-7--------7--------7--------7--------------|    
Ab|--7~----5-5-5-5-5-5-7--------7--------5--------5--------------|
Eb|--5~----5-5-5-5-5-5-5--------5--------5--------5--------------|
Guitar 3
eb|--------------------------------------------------------------|
Bb|-----------------------------10-9-----------------------------|
Gb|----------------------------------11--------------------------| 
Db|--------------------------------------------------------------|    
Ab|--------------------------------------------------------------|
Eb|--------------------------------------------------------------|

Guitar 1
eb|--0--------2--------2--------2--------0----------------0------|
Bb|--2--------2--------3--------3--------0----------------2------|
Gb|--2--------2--------4--------4--------1----------------2------|
Db|--2--------4--------4--------4--------2----------------2------|
Ab|--0--------4--------2--------2--------2----------------0------|
Eb|-----------2--------------------------0-----------------------|
Guitar 2
eb|--------------------------------------------------------------|
Bb|--------------------------------------------------------------|
Gb|--------------------4--------4--------------------------------| 
Db|--7--------4--------4--------4--------2----------------7~~~~--|    
Ab|--7--------4--------2--------2--------2----------------7~~~~--|
Eb|--5--------2--------2--------2--------0----------------5~~~~--|

Outro
Guitar 1
eb|--0----0--0-0-1--1-1/3-3-1-0--0----0--0-0-0--1-1/3-3-1-0--|
Bb|--2----2--2-2-3--3-3/5-5-3-2--2----2--2-2-3--3-3/5-5-3-2--|
Gb|--2----2--2-2-2--2-2/4-4-2-2--2----2--2-2-2--2-2/4-4-2-2--| 
Db|--2----2--2-2-0--0-0----------2----2--2-2-0--0-0----------|    
Ab|--0----0--0-0-----------------0----0--0-0-----------------|
Eb|----------------------------------------------------------|

eb|--0----0--0-0-1--1-1-3-3-1-0--0----0--0-0--0------------0-0--|
Bb|--2----2--2-2-3--3-3/5-5-3-2--2----2--2-2----3-2-0-2-3----2--|
Gb|--2----2--2-2-2--2-2/4-4-2-2--2----2--2-2-----------------2--| 
Db|--2----2--2-2-0--0-0----------2----2--2-2-----------------2--|    
Ab|--0----0--0-0-----------------0----0--0-0-----------------0--|
Eb|-------------------------------------------------------------|


Suggest correction
Creating personal tab
Creating personal tab
You can edit any tab online and save it as your Personal.

You can edit, replace or remove any tab part or add personal notes – all changes will be seen only by you.

Personal tabs can be accessed anytime from any device, even offline.
Learn more »
Give kudos to tab author, rate the tab!
1 2 3 4 5
comments
print report bad tab
guest
You may want to rate the tab now too:
select rating
Wanna post a correction for this tab? Suggest correction