Oops, an error
Loading. Please wait.

No Other One tab

version 1
version 1

Whole song

Interactive

by Weezer
21,973 views 39 this week
1 commentread comment
1 2 3 4 5
x 13
add to favorites
×
Save as Personal and add changes to this tab that will be seen only by you. Learn more ›
×
You can save this tab as Personal to edit and correct it or add notes. All changes will be seen only by you. Learn more »
launch autoscroll
font size
0
reset
how to read this tab
guitar tuner
edit
Autoscroll
slow
fast
+/-
esc
set tempo
stop
Weezer - No Other One
Submitted By: Jason Lee
EMail: loser_guitarist@hotmail.com
album: Pinkerton (1996)

By: Jake Shenker
    Montreal, Quebec
    shenkj@hotmail.com

ALL GUITARS TUNED 1/2 STEP DOWN (Eb Ab Db Gb Bb Eb)

Guitar 1
e|---------------------------------------------------------17\12\10-10\9\7\5--|
B|--2-2-/6-7-7/-10----2-2-/-6--7----12\------2-2-/-6--7---------------------|
G|----------------------------------------------------------------------------|
D|----------------------------------------------------------------------------|
A|----------------------------------------------------------------------------|
E|----------------------------------------------------------------------------|

Guitar 2
e|--9-9-/-13-14--17\----9-9-/-13-14------------9-9-/-13-14--------------------|
B|------------------------------------16\-------------------14--14------------|
G|------------------------------------------------------------------16--14----|
D|----------------------------------------------------------------------------|
A|----------------------------------------------------------------------------|
E|----------------------------------------------------------------------------|

Guitar 3
e|----------------------------------------------------------------------------|
B|----------------------------------------------------------------------------|
G|--------6--7---11-----------6--7-------------------6--7---------------------|
D|--7-7---6--7---11-----7-7---6--7---9--11-----7-7---6--7---7---7---7---7-----|
A|--7-7---4--5---9------7-7---4--5---9--11-----7-7---4--5---7---7---7---7-----|
E|--5-5---4--5---9------5-5---4--5---7--9------5-5---4--5---5---5---4---5-----|

Verse 1:
2 guitars arranged for 1

    My girl's a liar, but i'll stand beside her
e|------------5-----7-7---5----5-----5---------------------------------------|
B|--------------------7---5----5-----5-----7p5-------------------------------|
G|--6---6-------7---------6----6-----6h7-------6p4---------------------------|
D|--7---7-------9---------7----7-----7-------------7-------------------------|
A|--7-----------9---------7----7-----7---------------------------------------|
E|--5-----------7---------5----5-----5---------------------------------------|

    She's all i've got and i don't wanna be alone
e|--5--------------------------------------------------10--------------------|
B|--5----------------5----------------9--9---10--------10--------------------|
G|--6-----6-------------------7-------9--9---11--------11--------------------|
D|--7-----7-----------------------------11---12---12-------------------------|
A|--7-----7--------------9----------11------------12-------------------------|
E|--5-----5------------7-----------9--------------10-------------------------|

    My girl don't see me   when she's with my friends
e|---------5----------------------------------------------(5)----------------|
B|-----------5-----------------------------------------5--(5)----------------|
G|--6--------------------7-----------------6---2/4--6-----(6)----------------|
D|--7-----------------9---------------7--------------------------------------|
A|--7---------------9--------------7-----------------------------------------|
E|--5-------------7-------------5--------------------------------------------|

    She's all I've got and I don't wanna be alone
e|---------------------------------------------------------------------------|
B|---------------------------------------------------------------------------|
G|-----------------6---4---4---4---6--6--6-----------------------------------|
D|----------7----------4---4---4---6--6--6---------10------------------------|
A|------7--------------2---2---2---4--4--4----12---12----14-\-\-\------------|
E|--5------------------2---2---2---4--4--4----10---10------------------------|

Chorus:
2 guitars arranged for 1

    No there is no other one,  no there is no other one
e|---------------------------------------------------------------------------|
B|---------------------------------------------------------------------------|
G|-----------------4--4--4--4-----------------2--2--2--2---------------------|
D|--4--4--4--4--4--4--4--4--4--2--2--2--2--2--2--2--2--2---------------------|
A|--4--4--4--4--4--2--2--2--2--2--2--2--2--2--0--0--0--0---------------------|
E|--2--2--2--2--2--2--2--2--2--0--0--0--0--0---------------------------------|

    I can't have any other one,  though i would now i never could with one
e|---------------------------------------------------------------------------|
B|---------------------------------------------------------------------------|
G|-------------------4--4--4--4-----------------------------2--2--2--2-------|
D|--4--4--4--4--4----4--4--4--4-----------2--2--2--2--2-----2--2--2--2-------|
A|--4--4--4--4--4----2--2--2--2-----------2--2--2--2--2-----0--0--0--0-------|
E|--2--2--2--2--2----2--2--2--2-----------0--0--0--0--0----------------------|

Verse 2:
2 guitars arranged for 1

    All of the drugs she does    scare me real good
e|--5------------------------------------------------------------------------|
B|--------------5----5h7-----------------------------------------------------|
G|------6----------------7------6--9-------7p6--6----------------------------|
D|-------------------------------------9-----------9--7----------------------|
A|---------------------------------------------------------------------------|
E|---------------------------------------------------------------------------|

    She's got a  tattoo-oo  and two   pet   snakes
e|------------------9-\-7-\-5---9---4--4--5----------------------------------|
B|--10----9---10----10\-9-\-7---10--5--5--7---7-----------0------------------|
G|---------------9----------------------------7---6---4----------------------|
D|---------------------------------------------------------------------------|
A|---------------------------------------------------------------------------|
E|---------------------------------------------------------------------------|

    Nobody knows me like her, nobody knows her like me
e|------------5------7-7------5----5-----5-----------------------------------|
B|---------------------7------5----5-----5-----7p5---------------------------|
G|--6---6--------7------------6----6-----6h7-------6p4-----------------------|
D|--7---7--------9------------7----7-----7-------------7---------------------|
A|--7------------9------------7----7-----7-----------------------------------|
E|--5------------7------------5----5-----5-----------------------------------|

    We're all we've got and we don't wanna be alone
e|---------------------------------------------------------------------------|
B|---------------------------------------------9-----------------------------|
G|-------------------------------------------9-------------------------------|
D|-------7-------------------9------------11---------------------------------|
A|----7-------------------9-------------11------12--12--12--12---------------|
E|--5-------------------7--------------9--------10--10--10--10---------------|

Bridge:

Guitar 1 (bar 1)
e|---------------------------------------------------------------------------|
B|--17---13---8---8/10--6---5----17---13---8---10----------------------------|
G|---x----x---x---x-----x---x-----x----x---x---x-----------------------------|
D|--14---10---5---5/7---3---2----14---10---5---7-----------------------------|
A|---------------------------------------------------------------------------|
E|---------------------------------------------------------------------------|

Guitar 2 (bar 1)
e|---------------------------------------------1-----------------------------|
B|---------------------------------------------1-----------------------------|
G|---5--------7-------------------5------------2-----------------------------|
D|---5--------7-------------------5------------3-----------------------------|
A|---3--------5-------------------3------------3-----------------------------|
E|---3--------5-------------------3------------1-----------------------------|

Guitar 1 (bar 2)
e|---------------------------------------------------------------------------|
B|--17---13---8---10--6---5---6---5------------------------------------------|
G|---x----x---x---x---x---x---x---x---5---7----------------------------------|
D|--14---10---5---7---3---2---3---2---x---x----------------------------------|
A|------------------------------------3---5----------------------------------|
E|---------------------------------------------------------------------------|

Guitar 2 (bar 2)
e|----------------------------------------1----------------------------------|
B|----------------------------------------1----------------------------------|
G|---5------------7-----------------------2----------------------------------|
D|---5------------7-----------2-----------3----------------------------------|
A|---3------------5-----------2-----------3----------------------------------|
E|---3------------5-----------0-----------1----------------------------------|

submitted 10/29/02 by =jl=
actually tabbed by Jake Shenker
Suggest correction
Creating personal tab
Creating personal tab
You can edit any tab online and save it as your Personal.

You can edit, replace or remove any tab part or add personal notes – all changes will be seen only by you.

Personal tabs can be accessed anytime from any device, even offline.
Learn more »
comments
print report bad tab
1 comment total.
0 reply
talio2010 93 Mar 05, 2013 06:23 AM

awesome tab!

guest
Wanna post a correction for this tab? Suggest correction