Oops, an error
Loading. Please wait.

Only In Dreams bass

version 4
version 4
by Weezer
15,625 views 6 this week
7 commentsread comments
1 2 3 4 5
x 13
add to favorites
×
Save as Personal and add changes to this tab that will be seen only by you. Learn more ›
×
You can save this tab as Personal to edit and correct it or add notes. All changes will be seen only by you. Learn more »
launch autoscroll
font size
0
reset
guitar tuner
edit
Autoscroll
slow
fast
+/-
esc
set tempo
stop
Difficulty
----------------------------------------------------------------------------
			     ONLY IN DREAMS -Weezer                        
-----------------------------------------------------------------------------

Tabbed By : Jimmi B
e-mail: chongboy90@yahoo.com

Tuning:Eb,Ab,Db,Gb
Intro/ Verse
G|----------------------------------------------|
D|-------0h2-2-2-2-2p0--------------------------|
A|-2-2-2---------------0-0-0-0-5-5-3-3----------|
E|----------------------------------------------|X infinity

Chorus
G|------------------------------|--------------------------------|
D|*----------------------------*|--------------------------------|
A|*-2-2-0---------3-3-2-0-0-0-0*|--------1-1-1-1---------3-3-3-3-|
E|-------3-3-3-3----------------|1-1-1-1---------3-3-3-3---------|

G|------------------------|
D|------------------------|
A|2-2-2-0---------3-3-4-5-|
E|--------3-3-3-3---------|   Back To Verse


Near End
G|-------------------------------------------------------------------------|
D|-------------------------------------------------------------------------|
A|2222222222/77777777-0000000-5555/3333------------------------------------|
E|-------------------------------------------------------------------------|


That's it.



| /  slide up
| \  slide down
| h  hammer-on
| p  pull-off
| ~  vibrato
| +  harmonic
| x  Mute note
===============================================================================

            
            
Suggest correction
Creating personal tab
Creating personal tab
You can edit any tab online and save it as your Personal.

You can edit, replace or remove any tab part or add personal notes – all changes will be seen only by you.

Personal tabs can be accessed anytime from any device, even offline.
Learn more »
comments
print report bad tab
7 comments total. Showing first comments.
+1 reply
General Eric 102 Jun 29, 2008 08:01 AM

awesome tab...no complaints here

+1 reply
theWallofYAWN 51 Sep 15, 2008 08:56 PM

looks pretty good but the first part of the chorus has a couple missing notes.

G|------------------------------
D|*----------------------------*
A|*-2-2-0---------3-3-2-0-0-0-0*
E|-------3-3-3-3----------------

should be

G|----------------------------------
D|*--------------------------------*
A|*-2-2-0-----------3-3-2-0-0-0-0-0*
E|-------3-3-3-3-3------------------

needed another 3 and another 0

0 reply
Bumcivilian 237 Mar 22, 2009 02:52 PM

Great stuff

guest
Wanna post a correction for this tab? Suggest correction