Oops, an error
Loading. Please wait.

Paperface tab

by Weezer
7,589 views 36 this week
2 commentsread comments
1 2 3 4 5
x 6
add to favorites
×
Save as Personal and add changes to this tab that will be seen only by you. Learn more ›
×
You can save this tab as Personal to edit and correct it or add notes. All changes will be seen only by you. Learn more »
launch autoscroll
font size
0
reset
how to read this tab
guitar tuner
edit
Autoscroll
slow
fast
+/-
esc
set tempo
stop
Author
Paperface - Weezer

Tuning: Eb

Intro/Verse:

Guitar 1
         A              A7                D
e---------------------------------------------------------------------|
B--2-2-2-2-2-2-2-2--2-2-2-2-2-2-2-2--3-3-3-3-3-3-3-3--3-2-3-2-3-2-2-2-|
G--2-2-2-2-2-2-2-2--1-1-1-1-1-1-1-1--2-2-2-2-2-2-2-2--1-1-1-1-1-1-1-1-|
D--2-2-2-2-2-2-2-2--2-2-2-2-2-2-2-2--0-0-0-0-0-0-0-0--0-0-0-0-0-0-0-0-|
A---------------------------------------------------------------------|
E---------------------------------------------------------------------|

Guitar 2: not played in intro


        A                  A7             D
e----------0---------------0---------------2-----------------------|
B--2-----------2---2-----------2---3---3-------3---3---3---3---3---|
G------2-----2---2-----1-----1---1---2---2---2---2---1---1---1---1-|
D----2---2-----------2---2---------0---------------0---------------|
A--0---------------0-----------------------------------------------|
E------------------------------------------------------------------|

Chorus:
    A   E     F    Bb   A    E    F   Bb
e----------------------------------------------------------|
B----------------------------------------------------------|
G---------9-9-9---------3-3-3---------9-9-9---------3-3-3--|
D--7-7-7--9-9-9--3-3-3--3-3-3--7-7-7--9-9-9--3-3-3--3-3-3--|
A--7-7-7--7-7-7--3-3-3--1-1-1--7-7-7--7-7-7--3-3-3--1-1-1--|
E--5-5-5---------1-1-1---------5-5-5---------1-1-1---------|


Interlude: Only hope to...

e---------------------------------------------------------------|
B---------------------------------------------------------------|
G---------------------------------------------------------------|
D--9-9-9-9--9-9-9-9--6-6-6-6--4-4-4-4---------------------------|
A--7-7-7-7--6-6-6-6--4-4-4-4--2-2-2-2--7-7-7-7-7-7--7-7-7-7-7-7-|
E--------------------------------------4-4-4-4-4-4--5-5-5-5-5-5-|

Verse Alt: bluesy picking

Guitar 1:
e------0----0-2p-0---------------------------------0-5h-7p-5-2p-0h-2-2-0-----0-2-0----------|
B-----2----2-------3p-2-2p-0-------2-5-2p0-------2-----------------------3-2-------3/-5-2---|
G----2----1------------------4-2-2----------2--2------------------------------------------4-|
D---2----2----------------------------------------------------------------------------------|
A--0----0-------------------------------------0---------------------------------------------|
E-------------------------------------------------------------------------------------------|

e-----------------------0---0---0-----0-5-2-0--------------------0-------|
B-------------------2-3---3---3---2-2---------2-2-3-2-3-2-2----------2---|
G--4-2h4p2h4p2h4-4b-------------------------------------------2----2---2-|
D-----------------------------------------------------------2---2--------|
A---------------------------------------------------------0--------------|
E------------------------------------------------------------------------|

     (confusing to tab just do trill between 2 and 4 on G)


Guitar 2: 2:09

e--9-9/-10-10\-9-|
B----------------|
G--6-6/-7---7\-6-|
D----------------|
A----------------|
E----------------|

Tabbed  by Rob Kurtz

Send any corrections to bertk12@yahoo.com

            
            
Suggest correction
Creating personal tab
Creating personal tab
You can edit any tab online and save it as your Personal.

You can edit, replace or remove any tab part or add personal notes – all changes will be seen only by you.

Personal tabs can be accessed anytime from any device, even offline.
Learn more »
comments
print report bad tab
2 comments total.
-1 reply
blink-182.5 41 Apr 12, 2007 06:48 PM

The chorus should be

e|------------------------------------------------------------------|
B|------------------------------------------------------------------|
G|------------------------------------------------------------------|
D|7777-3333-4444-8888-----------------------------------------------|
A|7777-3333-4444-8888-----------------------------------------------|
E|5555-1111-2222-6666-----------------------------------------------|

two times

+1 reply
poojalooba_cow 20 Oct 23, 2008 08:57 PM

Yeah, no. The chorus chords are A, F, Gb, Bb. It sounds best like this:

A F Gb Bb A F Gb Bb
e----------------------------------------------------------------------|
B----------------------------------------------------------------------|
G----------10-10-10---------------------------10-10-10-----------8-8-8-|
D--7-7-7---10-10-10---4-4-4---8-8-8---7-7-7---10-10-10---4-4-4---8-8-8-|
A--7-7-7---8--8--8----4-4-4---8-8-8---7-7-7---8--8--8----4-4-4---6-6-6-|
E--5-5-5--------------2-2-2---6-6-6---5-5-5--------------2-2-2---------|


But you can also play it like this:

A F Gb Bb A F Gb Bb
e----------------------------------------------------------------|
B----------------------------------------------------------------|
G----------------------------------------------------------------|
D--7-7-7---3-3-3---4-4-4---8-8-8---7-7-7---3-3-3---4-4-4---8-8-8-|
A--7-7-7---3-3-3---4-4-4---8-8-8---7-7-7---3-3-3---4-4-4---8-8-8-|
E--5-5-5---1-1-1---2-2-2---6-6-6---5-5-5---1-1-1---2-2-2---6-6-6-|

Or like this:

A F Gb Bb A F Gb Bb
e----------------------------------------------------------------------|
B----------------------------------------------------------------------|
G---------10-10-10--11-11-11----------------10-10-10--11-11-11--8-8-8-|
D--7-7-7--10-10-10--11-11-11--8-8-8--7-7-7--10-10-10--11-11-11--8-8-8-|
A--7-7-7--8--8--8---9--9--9---8-8-8--7-7-7--8--8--8---9--9--9---6-6-6-|
E--5-5-5----------------------6-6-6--5-5-5----------------------------|

It's all the same chords, it just depends on where you're most comfortable playing your power chords and how fast you can slide up and down the fretboard while maintaining a good power-chord finger position. I recommend the first progression, though. It sounds much better than the octave-inversions that the other ones are.

Other than the chorus (which everyone everywhere has seemed to butcher) you did a very good job on this. Well done.

guest
You may want to rate the tab now too:
select rating
Wanna post a correction for this tab? Suggest correction