Oops, an error
Loading. Please wait.

Peace tab

version 1
version 1

Whole song

by Weezer
9,031 views 6 this week
3 commentsread comments
1 2 3 4 5
x 14
add to favorites
×
Save as Personal and add changes to this tab that will be seen only by you. Learn more ›
×
You can save this tab as Personal to edit and correct it or add notes. All changes will be seen only by you. Learn more »
launch autoscroll
font size
0
reset
how to read this tab
guitar tuner
edit
Autoscroll
slow
fast
+/-
esc
set tempo
stop
Author
Song: Peace
Band: Weezer
Album: Make Believe
Tabbed by: Alex Harford (Kick Me)
Email: rage_machine1516@yahoo.com

Tuning: Standard (e B G D A E)

Intro(00:00) - Guitar 1
e|--6---4---------------------------6---4------------------------------|
B|----6---4-6---4---/4--/4-2----------6---4-6---4---/4-b5r4-2------2---|
G|------------6---3---------------------------6---3------------3\1-----|
D|---------------------------------------------------------------------|
A|---------------------------------------------------------------------|
E|---------------------------------------------------------------------|
 |
 |Guitar 2
e|---------------------6--66-6-6-6---------------------6--66-6-6-6-----|
B|-----6--66-6-6-6-----6--66-6-6-6-----6--66-6-6-6-----6--66-6-6-6-----|
G|--6--6--66-6-6-6-----6--66-6-6-6--6--6--66-6-6-6-----6--66-6-6-6-----|
D|--6--6--66-6-6-6--8--8--88-8-8-8--6--6--66-6-6-6--8--8--88-8-8-8-----|
A|--4--4--44-4-4-4--8—-8--88-8-8-8--4--4—-44-4-4-4--8--8--88-8-8-8-----|
E|------------------6--6--66-6-6-6------------------6--6--66-6-6-6-----|


Verse(00:11)
e|---------------------6--66-6-6-6---------------------6--66-6-6-6-----|
B|-----6--66-6-6-6-----6--66-6-6-6-----6--66-6-6-6-----6--66-6-6-6-----|
G|--6--6--66-6-6-6-----6--66-6-6-6--6--6--66-6-6-6-----6--66-6-6-6-----|
D|--6--6--66-6-6-6--8--8--88-8-8-8--6--6--66-6-6-6--8--8--88-8-8-8-----|
A|--4--4--44-4-4-4--8—-8--88-8-8-8--4--4—-44-4-4-4--8--8--88-8-8-8-----|
E|------------------6--6--66-6-6-6------------------6--6--66-6-6-6-----|

e|---------------------6--66-6-6-6-------------------------------------|
B|-----6--66-6-6-6-----6--66-6-6-6-----6--66-6-6-6---------------------|
G|--6--6--66-6-6-6-----6--66-6-6-6--6--6--66-6-6-6--6------------------|
D|--6--6--66-6-6-6--8--8--88-8-8-8--6--6--66-6-6-6--8------------------|
A|--4--4--44-4-4-4--8—-8--88-8-8-8--4--4—-44-4-4-4--8------------------|
E|------------------6--6--66-6-6-6------------------6------------------|


Chorus - Guitar 1(00:37)        Repeat x3
e||---6---4----------------------------||
B||o----6---4-6---4---/4-b5r4-2-------o||
G||-------------6---3------------------|| Wait for Guitar 2
D||------------------------------------||   to play once.
A||o----------------------------------o||
E||------------------------------------||

Guitar 2(00:31)                 Repeat x4
e||------------------------------------||
B||o----------------------------------o||
G||---6--6--66-6-6-6-------------------||
D||---6--6--66-6-6-6--8--8--88-8-8-8---||
A||o--4--4--44-4-4-4--8--8--88-8-8-8—-o||
E||-------------------6--6--66-6-6-6---||

Verse(00:53)
e|---------------------6--66-6-6-6---------------------6--66-6-6-6-----|
B|-----6--66-6-6-6-----6--66-6-6-6-----6--66-6-6-6-----6--66-6-6-6-----|
G|--6--6--66-6-6-6-----6--66-6-6-6--6--6--66-6-6-6-----6--66-6-6-6-----|
D|--6--6--66-6-6-6--8--8--88-8-8-8--6--6--66-6-6-6--8--8--88-8-8-8-----|
A|--4--4--44-4-4-4--8—-8--88-8-8-8--4--4—-44-4-4-4--8--8--88-8-8-8-----|
E|------------------6--6--66-6-6-6------------------6--6--66-6-6-6-----|

e|---------------------6--66-6-6-6-------------------------------------|
B|-----6--66-6-6-6-----6--66-6-6-6-----6--66-6-6-6---------------------|
G|--6--6--66-6-6-6-----6--66-6-6-6--6--6--66-6-6-6--6------------------|
D|--6--6--66-6-6-6--8--8--88-8-8-8--6--6--66-6-6-6--8------------------|
A|--4--4--44-4-4-4--8—-8--88-8-8-8--4--4—-44-4-4-4--8------------------|
E|------------------6--6--66-6-6-6------------------6------------------|


Chorus - Guitar 1(01:19)        Repeat x3
e||---6---4----------------------------||
B||o----6---4-6---4---/4-b5r4-2-------o||
G||-------------6---3------------------|| Wait for Guitar 2
D||------------------------------------||   to play once.
A||o----------------------------------o||
E||------------------------------------||

Guitar 2(01:14)                 Repeat x4
e||------------------------------------||
B||o----------------------------------o||
G||---6--6--66-6-6-6-------------------||
D||---6--6--66-6-6-6--8--8--88-8-8-8---||
A||o--4--4--44-4-4-4--8--8--88-8-8-8—-o||
E||-------------------6--6--66-6-6-6---||


Bridge(01:35) - Guitar 1
e|---------------------------------------------------------------------|
B|---------------------------------------------------------------------|
G|------------------------6------------------------------------------6-|
D|--4----------6----------6-(x8)-----3-3-3-3--4----------6-----------6-|
A|--4-(x8)-----6-(x8)-----4----------3-3-3-3--4-(x8)-----6-(x8)------4-|
E|--2----------4---------------------1-1-1-1--2----------4-------------|
 |
 |Guitar 2
e|---------------------------------------------------------------------|
B|---------------------------------------------------------------------|
G|--3-3-33-333-5-5-55-555-6-6-66-666----------3-3-33-333-5-5-55-555--6-|
D|--4-4-44-444-6-6-66-666-6-6-66-666-3-3-3-3--4-4-44-444-6-6-66-666--6-|
A|--4-4-44-444-6-6-66-666-4-4-44-444-3-3-3-3--4-4-44-444-6-6-66-666--4-|
E|--2-2-22-222-4-4-44-444------------1-1-1-1--2-2-22-222-4-4-44-444----|


Solo(01:55) - Backing music is the same as the verse.
e|---------------------------------------------------------------------|
B|---------------------------------------------------------------------|
G|----------------------------------------------------6~~--------------|
D|--3b4r3-1-3----------------------------------------------------------|
A|------------4-4-44-4-44-3------------8-8-88-8-88-6-------------------|
E|--------------------------6-66-6-66/---------------------------------|

e|--------------------------------------------------------—20h21-------|
B|---------21-------21-------21-------21-------21-------21-------21----|
B|--/17h18----17h18----17h18----17h18----17h18----17h18----------------|
D|---------------------------------------------------------------------|
A|---------------------------------------------------------------------|
E|---------------------------------------------------------------------|

e|---------------------------------------------------------------------|
B|-13-b14r13-----16b18--r16p15p14—16b18--r16p15p14—16b18--r16p15p14----|
G|-----------15--------------------------------------------------------|
D|---------------------------------------------------------------------|
A|---------------------------------------------------------------------|
E|---------------------------------------------------------------------|

e|---------------------------------------------------------------------|
B|--16b18--r16p15p14—16b18r16b18-16-161616-14\13/14~~------------------|
G|---------------------------------------------------------------------|
D|---------------------------------------------------------------------|
A|---------------------------------------------------------------------|
E|---------------------------------------------------------------------|


Chorus - Guitar 1(02:23)        Repeat x3
e||---6---4----------------------------||
B||o----6---4-6---4---/4-b5r4-2-------o||
G||-------------6---3------------------|| Wait for Guitar 2
D||------------------------------------||   to play once.
A||o----------------------------------o||
E||------------------------------------||

Guitar 2(02:17)                 Repeat x4
e||------------------------------------||
B||o----------------------------------o||
G||---6--6--66-6-6-6-------------------||
D||---6--6--66-6-6-6--8--8--88-8-8-8---||
A||o--4--4--44-4-4-4--8--8--88-8-8-8—-o||
E||-------------------6--6--66-6-6-6---||

Bridge(02:38) - Guitar 1                 Repeat x3    End with this fourth time.
e||----------------------------------------------||----------------------------|
B||o--------------------------------------------o||----------------------------|
G||-------------------------6--------------------||------------------------6---|
D||---4----------6----------6-(x8)-----3-3-3-3---||--4----------6----------6---|
A||o--4-(x8)-----6-(x8)-----4----------3-3-3-3—-o||--4-(x8)-----6-(x8)-----4---|
E||---2----------4---------------------1-1-1-1---||--2----------4--------------|
 |
 |Guitar 2                                Repeat x3   End with this fourth time.
e||----------------------------------------------||----------------------------|
B||o--------------------------------------------o||----------------------------|
G||---3-3-33-333-5-5-55-555-6-6-66-666-----------||--3-3-33-333-5-5-55-555-6---|
D||---4-4-44-444-6-6-66-666-6-6-66-666-3-3-3-3---||--4-4-44-444-6-6-66-666-6---|
A||o--4-4-44-444-6-6-66-666-4-4-44-444-3-3-3-3--o||--4-4-44-444-6-6-66-666-4---|
E||---2-2-22-222-4-4-44-444------------1-1-1-1---||--2-2-22-222-4-4-44-444-----|


Outro(03:20) - Guitar 1                                                     End
e|----------------------------------------------------------------------------|
B|----------------------------------------------------------------------------|
G|------------------------------------------------------------------------6---|
D|--3b4r3-1-3----------------------------------------3b4r3-1-3------------6---|
A|---------------------------------------------4---------------------1----4---|
E|----------------------------------------6-4---------------------------------|
 |
 |Guitar 2(03:21)                      Repeat x4                            End
e||-----------------------------6--66-6-6-6---||---------------------6-------||
B||o------------6--66-6-6-6-----6--66-6-6-6—-o||---------------------6-------||
G||----------6--6--66-6-6-6-----6--66-6-6-6---||---------------------6----6--||
D||----------6--6--66-6-6-6--8--8--88-8-8-8---||---------------------8----6--||
A||o---------4--4--44-4-4-4--8—-8--88-8-8-8—-o||---------------------8----4--||
E||--------------------------6--6--66-6-6-6---||---------------------6-------||


Thanks for checking out my tab, rate and comment if it helped!

            
            
Suggest correction
Creating personal tab
Creating personal tab
You can edit any tab online and save it as your Personal.

You can edit, replace or remove any tab part or add personal notes – all changes will be seen only by you.

Personal tabs can be accessed anytime from any device, even offline.
Learn more »
comments
print report bad tab
3 comments total.
0 reply
pablo 110 May 30, 2005 08:00 PM

excellent perfect tab!

0 reply
hang.em.high. 10 Jul 31, 2006 07:25 PM

good good. awesome job

0 reply
CherrySG33 72 Jun 18, 2007 09:48 AM

very very good tab. absolutly the best ive seen.

guest
You may want to rate the tab now too:
select rating
Wanna post a correction for this tab? Suggest correction