Oops, an error
Loading. Please wait.
We have an official Perfect Situation tab made by UG professional guitarists. Check out the tab »
×
by Weezer
12,798 views 9 this week
2 commentsread comments
1 2 3 4 5
x 5
add to favorites
×
Save as Personal and add changes to this tab that will be seen only by you. Learn more ›
×
You can save this tab as Personal to edit and correct it or add notes. All changes will be seen only by you. Learn more »
launch autoscroll
font size
0
reset
guitar tuner
backing track
0:00
0:00
edit
Autoscroll
slow
fast
+/-
esc
set tempo
stop
Author
-----------------------------------------------------------------------------
			     Perfect Situation - Weezer
-----------------------------------------------------------------------------

Tabbed By : imkool123
e-mail: yomkool123@yahoo.com

Tuning: standard (E,A,D,G)

Intro x4
G|---------------------------------------------------------------------------|
D|---------------------------------------------------------------------------|
A|-----------------4-4-4-4-4-4-4-4-----------------4-4-4-4-4-4---------------|
E|-2-2-2-2-2-2-2-2-----------------4-4-4-4-4-4-4-4---------------------------|

Verse x4
G|---------------------------------------------------------------------------|
D|---------------------------------------------------------------------------|
A|-----------------4-4-4-4-4-4-4-4-----------------4-4-4-4-4-4-4-4-----------|
E|-2-2-2-2-2-2-2-2-----------------4-4-4-4-4-4-4-4---------------------------|

Chorus
G|---------------------------------------------------------------------------|
D|---------------------------------------------------------------------------|
A|-----------------4-4-4-4-4-4-4-4-----------------4-4-4-4-4-4-4-4-----------|
E|-2-2-2-2-2-2-2-2-----------------4-4-4-4-4-4-4-4---------------------------|

G|---------------------------------------------------------------------------|
D|---------------------------------------------------------------------------|
A|-----------------4-4-4-4-4-4-4-4-----------------4-4-2-2-------------------|
E|-2-2-2-2-2-2-2-2-----------------4-4-4-4-4-4-4-4---------4-4-2-2-----------|

After 2nd chorus
G|---------------------------------------------------------------------------|
D|---------------------------------------------------------------------------|
A|-6-6-6-6-6-6-6-6-4-4-4-4-4-4-4-4-2-2-2-2-2-2-2-2-4-4-2-2-1-1---------------|
E|-------------------------------------------------------------4-4-----------|

G|---------------------------------------------------------------------------|
D|---------------------------------------------------------------------------|
A|-6-6-6-6-6-6-6-6-4-4-4-4-4-4-4-4-2-2-2-2-2-2-2-2-4-4-2-2-1-1---------------|
E|-------------------------------------------------------------4~------------|

Guitar Solo x2
G|---------------------------------------------------------------------------|
D|---------------------------------------------------------------------------|
A|-----------------4-4-4-4-4-4-4-4-----------------4-4-4-4-4-4-4-4-----------|
E|-2-2-2-2-2-2-2-2-----------------4-4-4-4-4-4-4-4---------------------------|

After guitar solo (Some combination of these)
G|---------------------------------------------------------------------------|
D|---------------------------------------------------------------------------|
A|----4~-6~-4~-2~-4~-6~-4~-2~------------------------------------------------|
E|---------------------------------------------------------------------------|

G|---------------------------------------------------------------------------|
D|---------------------------------------------------------------------------|
A|----4~-6~-4~-4-4-2-2-1-1---------------------------------------------------|
E|-4~----------------------4-4-----------------------------------------------|

Outro x4 (after the forth time let the last note ring)
G|---------------------------------------------------------------------------|
D|---------------------------------------------------------------------------|
A|-----------------4-4-4-4-4-4-4-4-----------------4-4-2-2-1-1---------------|
E|-2-2-2-2-2-2-2-2-----------------4-4-4-4-4-4-4-4-------------4-4-2---------|

~ Vibrato
Order:
Intro
Verse
Chorus
Verse
Chorus
After 2nd chorus
Guitar solo
After Solo
Outro

            
            
Suggest correction
Creating personal tab
Creating personal tab
You can edit any tab online and save it as your Personal.

You can edit, replace or remove any tab part or add personal notes – all changes will be seen only by you.

Personal tabs can be accessed anytime from any device, even offline.
Learn more »
comments
print report bad tab
2 comments total.
0 reply
BassSurfer 80 Jan 05, 2006 11:35 AM

not bad a little good not great, the part after the solo is way way off. www.aolmusic.com/weezer watch the video here. its pretty good i guess.

0 reply
O-52-A-50-R 946 Jun 07, 2008 06:28 PM

I don't even here any bass after the solo... I don't know... 5 stars I feel it's accurate.

guest
You may want to rate the tab now too:
select rating
Wanna post a correction for this tab? Suggest correction