Oops, an error
Loading. Please wait.
We have an official Perfect Situation tab made by UG professional guitarists. Check out the tab »
×
by Weezer
18,854 views 6 this week
3 commentsread comments
1 2 3 4 5
x 6
add to favorites
×
Save as Personal and add changes to this tab that will be seen only by you. Learn more ›
×
You can save this tab as Personal to edit and correct it or add notes. All changes will be seen only by you. Learn more »
launch autoscroll
font size
0
reset
how to read this tab
guitar tuner
backing track
0:00
0:00
edit
Autoscroll
slow
fast
+/-
esc
set tempo
stop
Author
Perfect Situation (solo)
Weezer
Make Believe

Tabbed by: Josh

Okay, I think this is the best song on the new album "Make Believe", but there are only
two tabs for it and no solo yet.  I just listened the best I could, and I got a little
lazy towards the end, so that might not sound as good.


|---------------------------------|
|--------------------------15-----|
|----14b~~~--14b~~---14h16----14--|
|---------------------------------|
|---------------------------------|
|---------------------------------|


|------------------11-14b-11-------------------------------------------|
|------------11-14-----------13-11-------------------------------------|
|------11-14-----------------------13-11----------11-13b-11---------11~|
|11-13-----------------------------------13-11-13-----------13-11-13---|
|----------------------------------------------------------------------|
|----------------------------------------------------------------------|



It gets hard to hear from all the feedback, but this is what I came up with.
|--14b~~~----------------------------------|
|--------12p14-----------12-14-12----------|
|--------------12b-12-14----------15-14-12-|
|------------------------------------------|
|------------------------------------------|
|------------------------------------------|


|--------------------------------------------------------|
|----------------------17bbbbb~~~~----15-14-12-14-12-----|
|--14b-14b-14b--12p14------------------------------------|
|--------------------------------------------------------|
|--------------------------------------------------------|
|--------------------------------------------------------|



Post comments, but go easy. Me and my friend both tried to tab this and we came up with
different results.

~Josh.

            
            
Suggest correction
Creating personal tab
Creating personal tab
You can edit any tab online and save it as your Personal.

You can edit, replace or remove any tab part or add personal notes – all changes will be seen only by you.

Personal tabs can be accessed anytime from any device, even offline.
Learn more »
comments
print report bad tab
3 comments total.
0 reply
ZackEpiphone 10 May 21, 2006 05:59 PM

Hey .... Josh :S .. I think this tab is pretty alright.. i cant really tell the difference other than playing with and without a wah pedal.. make sure to include that part ;)

0 reply
rocker7474 10 Mar 17, 2008 03:37 PM

eh theres alotta notes one off i guess but could be better

0 reply
rocker7474 10 Mar 17, 2008 03:37 PM

sorry didnt meen to put anythin in corrections

guest
You may want to rate the tab now too:
select rating
Wanna post a correction for this tab? Suggest correction