Oops, an error
Loading. Please wait.

Perfect Situation Tab

version 2
version 2

Whole song

Interactive

14,839 views 1 this week
1 commentread comment
1 2 3 4 5
worth learning
x 6
add to favorites
launch autoscroll
font size
0
reset
how to read this tab
guitar tuner
Tab Pro tools
  • play this tab
  • loop segment
  • change instrument
  • show fretboard
  • metronome
×
Best way to learn
"Perfect Situation"
Autoscroll
slow
fast
+/-
esc
set tempo
stop
Contributor
Difficulty
Band: Weezer
Song: Perfect Situation
Standard tuning: EADGBe

This tab is 100% correct. Rate High


           Seconds=0:00 Piano=clean Guitar 1=distortion (rhythm)
Intro:                              Guitar 2=high end distortion (lead)
Guitar 1:
e|----------------------------------------------------------------------|
B|----------------------------------------------------------------------|
G|-------------------6-6-6-6-6-6-6-6-------------------6-6-6-6-6-6-6-6--|
D|--4-4-4-4-4-4-4-4--6-6-6-6-6-6-6-6--6-6-6-6-6-6-6-6--6-6-6-6-6-6-6-6--| x4
A|--4-4-4-4-4-4-4-4--4-4-4-4-4-4-4-4--6-6-6-6-6-6-6-6--4-4-4-4-4-4-4-4--|
E|--2-2-2-2-2-2-2-2-------------------4-4-4-4-4-4-4-4-------------------|

Guitar 2:                  0:3.5                0:6  0:7
                             |                    |    |
e|-----------2---------------------------------------------------------|
B|---------------------------------------------------------------------|
G|---------------------------------------------------------------------|
D|-------------4-4-4-4-4-4-4-3-3-3-4-4-/8-8-8-8-8-8b---6-6-6-6-8-8-9-9-|
A|---------------------------------------------------------------------|
E|---------------------------------------------------------------------|
   0:9.5              0:13                0:15      0:16.5
     |                  |                   |         |
e|--------------------------------------------------------------------|
B|--------------------------------------------------------------------|
G|------------------------------------8-10-11~-------11b-10-----------|
D|--11~----------------11---------------------------------------------|
A|--------------------------------------------------------------------|
E|--------------------------------------------------------------------|
            0:20.5   0:21.5      0:24
              |        |           |
e|-----------------------------------------------------------------------------------------|
B|---11-9-11-11-------11b---------(11-11-14-11-12-11-12--14-14-12-11-12-11-12-11-11-12-11--|
G|-----------------------------------------------------------------------------------------|
D|-----------------------------------------------------------------------------------------|
A|-----------------------------------------------------------------------------------------|
E|-----------------------------------------------------------------------------------------|
   0:31               0:33               0:36                 0:39
     |                  |                  |                    |
e|-----------14-----------------14------------------------------------|
B|--14-14h16-----------14-14h16-----------14-14h16p14-----------------|
G|--------------------------------------------------------------------|
D|----------------16-----------------16-----------------16~~---16~~~~-|
A|--------------------------------------------------------------------|
E|--------------------------------------------------------------------|

Verse 1:
Piano:
e|----------------------------------------------------------------------|
B|----------------------------------------------------------------------|
G|-------------------6-6-6-6-6-6-6-6-------------------6-6-6-6-6-6-6-6--|
D|--4-4-4-4-4-4-4-4--6-6-6-6-6-6-6-6--6-6-6-6-6-6-6-6--6-6-6-6-6-6-6-6--| x4
A|--4-4-4-4-4-4-4-4--4-4-4-4-4-4-4-4--6-6-6-6-6-6-6-6--4-4-4-4-4-4-4-4--|
E|--2-2-2-2-2-2-2-2-------------------4-4-4-4-4-4-4-4-------------------|

Chorus:
Guitar 1:
e|----------------------------------------------------------------------|
B|----------------------------------------------------------------------|
G|-------------------6-6-6-6-6-6-6-6-------------------6-6-6-6-6-6-6-6--|
D|--4-4-4-4-4-4-4-4--6-6-6-6-6-6-6-6--6-6-6-6-6-6-6-6--6-6-6-6-6-6-6-6--| x4
A|--4-4-4-4-4-4-4-4--4-4-4-4-4-4-4-4--6-6-6-6-6-6-6-6--4-4-4-4-4-4-4-4--|
E|--2-2-2-2-2-2-2-2-------------------4-4-4-4-4-4-4-4-------------------|

Verse 2:
Piano:
e|----------------------------------------------------------------------|
B|----------------------------------------------------------------------|
G|-------------------6-6-6-6-6-6-6-6-------------------6-6-6-6-6-6-6-6--|
D|--4-4-4-4-4-4-4-4--6-6-6-6-6-6-6-6--6-6-6-6-6-6-6-6--6-6-6-6-6-6-6-6--| x2
A|--4-4-4-4-4-4-4-4--4-4-4-4-4-4-4-4--6-6-6-6-6-6-6-6--4-4-4-4-4-4-4-4--|
E|--2-2-2-2-2-2-2-2-------------------4-4-4-4-4-4-4-4-------------------|

Chorus:
Guitar 1:           On this chorus it has some piano fills
e|----------------------------------------------------------------------|
B|----------------------------------------------------------------------|
G|-------------------6-6-6-6-6-6-6-6-------------------6-6-6-6-6-6-6-6--|
D|--4-4-4-4-4-4-4-4--6-6-6-6-6-6-6-6--6-6-6-6-6-6-6-6--6-6-6-6-6-6-6-6--| x4
A|--4-4-4-4-4-4-4-4--4-4-4-4-4-4-4-4--6-6-6-6-6-6-6-6--4-4-4-4-4-4-4-4--|
E|--2-2-2-2-2-2-2-2-------------------4-4-4-4-4-4-4-4-------------------|

Bridge:
Guitar 1:
e|---------------------------------------------------------------------|
B|---------------------------------------------------------------------|
G|--8-8-8-8-8-8-8-8--6-6-6-6-6-6-6-6--4-4-4-4-4-4-4-4--6-6-6-6-6-6-6-6-|
D|--8-8-8-8-8-8-8-8--6-6-6-6-6-6-6-6--4-4-4-4-4-4-4-4--6-6-6-6-6-6-6-6-|
A|--6-6-6-6-6-6-6-6--4-4-4-4-4-4-4-4--2-2-2-2-2-2-2-2--4-4-4-4-4-4-4-4-|
E|---------------------------------------------------------------------|

e|---------------------------------------------------------------------|
B|--4-4-4-4-4-4-4-4--6-6-6-6-6-6-6-6--7-7-7-7-7-7-7-7--9-9-9-9-9-9-9-9-|
G|--3-3-3-3-3-3-3-3--5-5-5-5-5-5-5-5--6-6-6-6-6-6-6-6--8-8-8-8-8-8-8-8-|
D|--1-1-1-1-1-1-1-1--3-3-3-3-3-3-3-3--4-4-4-4-4-4-4-4--6-6-6-6-6-6-6-6-|
A|---------------------------------------------------------------------|
E|---------------------------------------------------------------------|
Guitar 2:
e|--------------------------------------------------------------------|
B|--------------------------------------------------------------------|
G|--------------------------------------------------------------------|
D|--------------------------------------------------------------------|
A|--------------------------------------------------------------------|
E|--------------------------------------------------------------------|

e|---------------------------------------------------------------------|
B|--4----------------6----------------7----------------9------------9--|b
G|---------------------------------------------------------------------|
D|---------------------------------------------------------------------|
A|---------------------------------------------------------------------|
E|---------------------------------------------------------------------|

Solo:
Guitar 1:
e|----------------------------------------------------------------------|
B|----------------------------------------------------------------------|
G|-------------------6-6-6-6-6-6-6-6-------------------6-6-6-6-6-6-6-6--|
D|--4-4-4-4-4-4-4-4--6-6-6-6-6-6-6-6--6-6-6-6-6-6-6-6--6-6-6-6-6-6-6-6--| x2
A|--4-4-4-4-4-4-4-4--4-4-4-4-4-4-4-4--6-6-6-6-6-6-6-6--4-4-4-4-4-4-4-4--|
E|--2-2-2-2-2-2-2-2-------------------4-4-4-4-4-4-4-4-------------------|

Guitar 2:
e|--------------------------------------------------------------------|
B|---------solo coming soon-------------------------------------------|
G|--------------------------------------------------------------------|
D|--------------------------------------------------------------------|
A|--------------------------------------------------------------------|
E|--------------------------------------------------------------------|

e|--------------------------------------------------------------------|
B|--------------------------------------------------------------------|
G|--------------------------------------------------------------------|
D|--------------------------------------------------------------------|
A|--------------------------------------------------------------------|
E|--------------------------------------------------------------------|

Final Chorus:
Piano:
e|--------------------------------------------------------------------|
B|--------------------------------------------------------------------|
G|-------------------6---------------------------------6--------------|
D|--4----------------6----------------6----------------6--------------|
A|--4----------------4----------------6----------------4--------------|
E|--2---------------------------------4-------------------------------|

e|--------------------------------------------------------------------|
B|--------------------------------------------------------------------|
G|-------------------6---------------------------------6--------------|
D|--4----------------6----------------6----------------6--------------|
A|--4----------------4----------------6----------------4--------------|
E|--2---------------------------------4-------------------------------|

Guitar 2:
e|--------------------------------------------------------------------|
B|--------------------------------------------------------------------|
G|--------------------------------------------------------------------|
D|--------------------------------------------------------------------|
A|--------------------------------------------------------------------|
E|--------------------------------------------------------------------|

e|---------12b~--------------12b~-----------------------12b~~~~-------|
B|--------------------------------------------------------------------|
G|--------------------------------------------------------------------|
D|--------------------------------------------------------------------|
A|--------------------------------------------------------------------|
E|--------------------------------------------------------------------|
Outro:
Guitar 1:                                                                End on
e|--------------------------------------------------------------------    ----|
B|--------------------------------------------------------------------    ----|
G|-------------------6-6-6-6-6-6-6-6-------------------6-6-6-6-6-6-6-6    ----|
D|--4-4-4-4-4-4-4-4--6-6-6-6-6-6-6-6--6-6-6-6-6-6-6-6--6-6-6-6-6-6-6-6 x4 –4--|
A|--4-4-4-4-4-4-4-4--4-4-4-4-4-4-4-4--6-6-6-6-6-6-6-6--4-4-4-4-4-4-4-4    –4--|
E|--2-2-2-2-2-2-2-2-------------------4-4-4-4-4-4-4-4-----------------    -2--|

Guitar 2:
e|------14---------------13---14---18-----------18b------16------------|
B|---------------------------------------------------------------------|
G|------------------------------------------------------------18-16-15-|
D|---------------------------------------------------------------------|
A|---------------------------------------------------------------------|
E|---------------------------------------------------------------------|

e|------14---------------13---14---18-----------18b------16------------|
B|---------------------------------------------------------------------|
G|------------------------------------------------------------18-16-15-|
D|---------------------------------------------------------------------|
A|---------------------------------------------------------------------|
E|---------------------------------------------------------------------|

e|--------------------------------------------------------------------|
B|--------------------------------------------------------------------|
G|---18-16-15---18-16-15---18-16-15---18-16-15---18-16-15---18-16-15--|
D|--------------------------------------------------------------------|
A|--------------------------------------------------------------------|
E|--------------------------------------------------------------------|

E|--------------------------------------------------------------------|
B|--------------------------------------------------------------------|
G|-18-16-15~~~~~~-----------------------------------------------------|
D|--------------------------------------------------------------------|
A|--------------------------------------------------------------------|
E|--------------------------------------------------------------------|
comments
print report bad tab
1 comment total.
0 reply
rskjr wrote on February 26 2008, 10:35 pm

good job on the intro solo.
this is played at 2:04 or thereabouts.

1 + 2 + 3 + 4 + 2 + 2 + 3 + 4 + 3 + 2 + 3 + 4 + 4 + 2 + 3 + 4 +
e||--------------------|------------------|-----------------|-----------------|
B||---7-6-4------------|-6-4--------------|-4---------------|-6-4-------------|
G||---------6-4-3------|-----6-4-3--------|---6-4-3---------|-----6-4-3-------|
D||---------------6-4--|-----------6-4-3--|---------6-4-3---|-----------6-4-3-|
A||--------------------|------------------|---------------6-|-----------------|
E||--------------------|------------------|-----------------|-----------------|

I want to post or [tab]
guest
You may want to rate the tab now too:
select rating
Please do not post tabs as comments. Select "correction" instead!