Oops, an error
Loading. Please wait.

Pink Triangle tab

version 1
version 1

Whole song

Interactive

by Weezer
36,389 views 51 this week
4 commentsread comments
1 2 3 4 5
x 11
add to favorites
×
Save as Personal and add changes to this tab that will be seen only by you. Learn more ›
×
You can save this tab as Personal to edit and correct it or add notes. All changes will be seen only by you. Learn more »
launch autoscroll
font size
0
reset
how to read this tab
guitar tuner
edit
Autoscroll
slow
fast
+/-
esc
set tempo
stop
-------------------------------------------------------------------------------
Pink Triangle - Weezer
-------------------------------------------------------------------------------

Tabbed by: cjpm105

Tuning: Guitar 1 - Standard, half step down.
        Guitar 2 - Standard, half step down.


Guitar 1 is lead, panned right
Guitar 2 is rhythm, panned left
An additional 2 guitars appear for the intro, but the rest of the song uses only 2 tracks.

[Intro]

Guitar 1
eb|--------------------------------------------------------------------|
Bb|--------------------------------------------------------------------|
Gb|--0---2----4-----4-----------------0---2----4-----4-----------------|
Db|-------------5-----5---4---5-----0------------5-----5---4---5-----0-|
Ab|----2----3-----5-----5---5---5-2-----2----3-----5-----5---5---5-2---|
Eb|--------------------------------------------------------------------|
Guitar 2****************************************************************
eb|-----------7--------------------------------7-----------------------|
Bb|--8---10-----8-----8---7---8-------8---10-----8-----8---7---8-------|
Gb|----7----7-------7---7---7---7---7---7----7-------7---7---7---7---7-|
Db|---------------9---------------9----------------9---------------9---|
Ab|--------------------------------------------------------------------|
Eb|--------------------------------------------------------------------|

Guitar 1
eb|--------------------------------------------------------------------|
Bb|--------------------------------------------------------------------|
Gb|--0---2----4-----4-----------------0---2----4-----4-----------------|
Db|-------------5-----5---4---5-----0------------5-----5---4---5-----0-|
Ab|----2----3-----5-----5---5---5-2-----2----3-----5-----5---5---5-2---|
Eb|--------------------------------------------------------------------|
Guitar 2****************************************************************
eb|-----------7--------------------------------7-----------------------|
Bb|--8---10-----8-----8---7---8-------8---10-----8-----8---7---8-------|
Gb|----7----7-------7---7---7---7---7---7----7-------7---7---7---7---7-|
Db|---------------9---------------9----------------9---------------9---|
Ab|--------------------------------------------------------------------|
Eb|--------------------------------------------------------------------|
Guitar 3****************************************************************
eb|--------------------------------------------------------------------|
Bb|--15------------17s12----------13s8-------------10s3----------------|
Gb|--------------------------------------------------------------------|
Db|--------------------------------------------------------------------|
Ab|--------------------------------------------------------------------|
Eb|--------------------------------------------------------------------|
Guitar 4****************************************************************
eb|------------------------0~------------------------------------------|
Bb|------------------------0~------------------------------------------|
Gb|------------------------0~------------------------------------------|
Db|------------------------2~------------------------------------------|
Ab|------------------------2~------------------------------------------|
Eb|------------------------0~------------------------------------------|

[Verse 1]

Guitar 1
eb|--0----0----0----0---0----0---0---0---0--0-----------------------3----3---3---2--2-2-|
Bb|--0----0----0----0---0----1---1---1---1--1---3---3--0--3--3---3--3----3---3---3--3-3-|
Gb|--0----0----0----0---0----2---2---2---2--2---0---0--0--0--0---0--0----0---0---0--0-0-|
Db|-(2)--(2)--(2)--(2)-(2)---2---2---2---2--2----------------------(0)--(0)-(0)---------|
Ab|-(2)--(2)--(2)--(2)-(2)---0---0---0---0--0----------------------(2)--(2)-(2)---------|
Eb|-(0)--(0)--(0)--(0)-(0)-----------------------------------------(3)--(3)-(3)---------|
Guitar 2*********************************************************************************
eb|--0----0----0----0---0----0---0---0---0--0---2---2---2---2--2----3----3---3---2--2-2-|
Bb|--0----0----0----0---0----1---1---1---1--1---3---3---3---3--3----3----3---3---3--3-3-|
Gb|--0----0----0----0---0----2---2---2---2--2---2---2---2---2--2----0----0---0---0--0-0-|
Db|-(2)--(2)--(2)--(2)-(2)---2---2---2---2--2---0---0---0---0--0---(0)--(0)-(0)---------|
Ab|-(2)--(2)--(2)--(2)-(2)---0---0---0---0--0----------------------(2)--(2)-(2)---------|
Eb|-(0)--(0)--(0)--(0)-(0)-----------------------------------------(3)--(3)-(3)---------|

Guitar 1
eb|--0----0----0----0---0----0---0---0---0--0---3---2-0-------------3----3---3---2--2-2-|
Bb|--0----0----0----0---0----1---1---1---1--1-----------3-0---------3----3---3---3--3-3-|
Gb|--0----0----0----0---0----2---2---2---2--2-----------------2--0--0----0---0---0--0-0-|
Db|-(2)--(2)--(2)--(2)-(2)---2---2---2---2--2----------------------(0)--(0)-(0)---------|
Ab|-(2)--(2)--(2)--(2)-(2)---0---0---0---0--0----------------------(2)--(2)-(2)---------|
Eb|-(0)--(0)--(0)--(0)-(0)-----------------------------------------(3)--(3)-(3)---------|
Guitar 2*********************************************************************************
eb|--0----0----0----0---0----0---0---0---0--0---2---2---2---2--2----3----3---3---2--2-2-|
Bb|--0----0----0----0---0----1---1---1---1--1---3---3---3---3--3----3----3---3---3--3-3-|
Gb|--0----0----0----0---0----2---2---2---2--2---2---2---2---2--2----0----0---0---0--0-0-|
Db|-(2)--(2)--(2)--(2)-(2)---2---2---2---2--2---0---0---0---0--0---(0)--(0)-(0)---------|
Ab|-(2)--(2)--(2)--(2)-(2)---0---0---0---0--0----------------------(2)--(2)-(2)---------|
Eb|-(0)--(0)--(0)--(0)-(0)-----------------------------------------(3)--(3)-(3)---------|

Guitar 1
eb|--0----0----0----0---0----0---0---0---0--0---2---2---2---2--2----3----3---3---2--2-2-|
Bb|--0----0----0----0---0----1---1---1---1--1---3---3---3---3--3----3----3---3---3--3-3-|
Gb|--0----0----0----0---0----2---2---2---2--2---2---2---2---2--2----0----0---0---0--0-0-|
Db|-(2)--(2)--(2)--(2)-(2)---2---2---2---2--2---0---0---0---0--0---(0)--(0)-(0)---------|
Ab|-(2)--(2)--(2)--(2)-(2)---0---0---0---0--0----------------------(2)--(2)-(2)---------|
Eb|-(0)--(0)--(0)--(0)-(0)-----------------------------------------(3)--(3)-(3)---------|
Guitar 2*********************************************************************************
eb|--0----0----0----0---0----0---0---0---0--0---2---2---2---2--2----3----3---3---2--2-2-|
Bb|--0----0----0----0---0----1---1---1---1--1---3---3---3---3--3----3----3---3---3--3-3-|
Gb|--0----0----0----0---0----2---2---2---2--2---2---2---2---2--2----0----0---0---0--0-0-|
Db|-(2)--(2)--(2)--(2)-(2)---2---2---2---2--2---0---0---0---0--0---(0)--(0)-(0)---------|
Ab|-(2)--(2)--(2)--(2)-(2)---0---0---0---0--0----------------------(2)--(2)-(2)---------|
Eb|-(0)--(0)--(0)--(0)-(0)-----------------------------------------(3)--(3)-(3)---------|

Guitar 1
eb|--0----0----0----0---0----0---0---0---0--0---2---2---2---2--2-|
Bb|--0----0----0----0---0----1---1---1---1--1---3---3---3---3--3-|
Gb|--0----0----0----0---0----2---2---2---2--2---2---2---2---2--2-|
Db|-(2)--(2)--(2)--(2)-(2)---2---2---2---2--2---0---0---0---0--0-|
Ab|-(2)--(2)--(2)--(2)-(2)---0---0---0---0--0--------------------|
Eb|-(0)--(0)--(0)--(0)-(0)---------------------------------------|
Guitar 2**********************************************************
eb|--0----0----0----0---0----0---0---0---0--0---2---2---2---2--2-|
Bb|--0----0----0----0---0----1---1---1---1--1---3---3---3---3--3-|
Gb|--0----0----0----0---0----2---2---2---2--2---2---2---2---2--2-|
Db|-(2)--(2)--(2)--(2)-(2)---2---2---2---2--2---0---0---0---0--0-|
Ab|-(2)--(2)--(2)--(2)-(2)---0---0---0---0--0--------------------|
Eb|-(0)--(0)--(0)--(0)-(0)---------------------------------------|

Chorus (Both guitars)
eb|--------------------------------------------------------------------------------|
Bb|--------------------------------------------------------------------------------|
Gb|------------------------------------------5----5--------------7----7----7----7--|
Db|--5----5----9----9---10---10----5----5----5----5----5----5----7----7----7----7--|
Ab|--5----5----9----9---10---10----5----5----3----3----5----5----5----5----5----5--|
Eb|--3----3----7----7----8----8----3----3----3----3----3----3----5----5----5----5--|

eb|--------------------------------------------------------------------------------|
Bb|--------------------------------------------------------------------------------|
Gb|--9----9----------------------------------5----5--------------7----7----7----7--|
Db|--9----9----9----9---10---10----5----5----5----5----5----5----7----7----7----7--|
Ab|--7----7----9----9---10---10----5----5----3----3----5----5----5----5----5----5--|
Eb|--7----7----7----7----8----8----3----3----3----3----3----3----5----5----5----5--|

eb|---------------------------------------------------------------------------|
Bb|---------------------------------------------------------------------------|
Gb|--5--4--2---2----7----7----9----9----5----5--------------5----5----7----7--|
Db|--5--5--2---2----7----7----9----9----5----5----5----5----5----5----7----7--|
Ab|--3--2--0---0----5----5----7----7----3----3----5----5----3----3----5----5--|
Eb|-----------------5----5----7----7----3----3----3----3----3----3----5----5--|

eb|--------------------|
Bb|--------------------|
Gb|--------------------|
Db|--5----5----5----5--|
Ab|--5----5----5----5--| 
Eb|--3----3----3----3--|

Guitar 1
eb|--------------------------------------------------------------------|
Bb|--------------------------------------------------------------------|
Gb|--0---2----4-----4-----------------0---2----4-----4-----------------|
Db|-------------5-----5---4---5-----0------------5-----5---4---5-----0-|
Ab|----2----3-----5-----5---5---5-2-----2----3-----5-----5---5---5-2---|
Eb|--------------------------------------------------------------------|
Guitar 2****************************************************************
eb|-----------7--------------------------------7-----------------------|
Bb|--8---10-----8-----8---7---8-------8---10-----8-----8---7---8-------|
Gb|----7----7-------7---7---7---7---7---7----7-------7---7---7---7---7-|
Db|---------------9---------------9----------------9---------------9---|
Ab|--------------------------------------------------------------------|
Eb|--------------------------------------------------------------------|

[Verse 2]

Guitar 1
eb|--0----0----0----0---0----0---0---0---0--0-----------------------3----------3--------|
Bb|--0----0----0----0---0----1---1---1---1--1---3---3--3--3--3---3--3--------0----0--0--|
Gb|--0----0----0----0---0----2---2---2---2--2---0---0--0--0--0---0--0----0h2------------|
Db|-(2)--(2)--(2)--(2)-(2)---2---2---2---2--2-------------------------------------------|
Ab|-(2)--(2)--(2)--(2)-(2)---0---0---0---0--0-------------------------------------------|
Eb|-(0)--(0)--(0)--(0)-(0)--------------------------------------------------------------|
Guitar 2*********************************************************************************
eb|--0----0----0----0---0----0---0---0---0--0---2---2---2---2--2----3----3---3---2--2-2-|
Bb|--0----0----0----0---0----1---1---1---1--1---3---3---3---3--3----3----3---3---3--3-3-|
Gb|--0----0----0----0---0----2---2---2---2--2---2---2---2---2--2----0----0---0---0--0-0-|
Db|-(2)--(2)--(2)--(2)-(2)---2---2---2---2--2---0---0---0---0--0---(0)--(0)-(0)---------|
Ab|-(2)--(2)--(2)--(2)-(2)---0---0---0---0--0----------------------(2)--(2)-(2)---------|
Eb|-(0)--(0)--(0)--(0)-(0)-----------------------------------------(3)--(3)-(3)---------|

Guitar 1
eb|--0----0----0----0---0----0---0---0---0--0---3---2-0-------------3----3---3---2--2-2-|
Bb|--0----0----0----0---0----1---1---1---1--1-----------3-0---------3----3---3---3--3-3-|
Gb|--0----0----0----0---0----2---2---2---2--2-----------------2--0--0----0---0---0--0-0-|
Db|-(2)--(2)--(2)--(2)-(2)---2---2---2---2--2----------------------(0)--(0)-(0)---------|
Ab|-(2)--(2)--(2)--(2)-(2)---0---0---0---0--0----------------------(2)--(2)-(2)---------|
Eb|-(0)--(0)--(0)--(0)-(0)-----------------------------------------(3)--(3)-(3)---------|
Guitar 2*********************************************************************************
eb|--0----0----0----0---0----0---0---0---0--0---2---2---2---2--2----3----3---3---2--2-2-|
Bb|--0----0----0----0---0----1---1---1---1--1---3---3---3---3--3----3----3---3---3--3-3-|
Gb|--0----0----0----0---0----2---2---2---2--2---2---2---2---2--2----0----0---0---0--0-0-|
Db|-(2)--(2)--(2)--(2)-(2)---2---2---2---2--2---0---0---0---0--0---(0)--(0)-(0)---------|
Ab|-(2)--(2)--(2)--(2)-(2)---0---0---0---0--0----------------------(2)--(2)-(2)---------|
Eb|-(0)--(0)--(0)--(0)-(0)-----------------------------------------(3)--(3)-(3)---------|

Guitar 1
eb|--0----0----0----0---0----0---0---0---0--0---2---2---2---2--2----3----3---3---2--2-2-|
Bb|--0----0----0----0---0----1---1---1---1--1---3---3---3---3--3----3----3---3---3--3-3-|
Gb|--0----0----0----0---0----2---2---2---2--2---2---2---2---2--2----0----0---0---0--0-0-|
Db|-(2)--(2)--(2)--(2)-(2)---2---2---2---2--2---0---0---0---0--0---(0)--(0)-(0)---------|
Ab|-(2)--(2)--(2)--(2)-(2)---0---0---0---0--0----------------------(2)--(2)-(2)---------|
Eb|-(0)--(0)--(0)--(0)-(0)-----------------------------------------(3)--(3)-(3)---------|
Guitar 2*********************************************************************************
eb|--0----0----0----0---0----0---0---0---0--0---2---2---2---2--2----3----3---3---2--2-2-|
Bb|--0----0----0----0---0----1---1---1---1--1---3---3---3---3--3----3----3---3---3--3-3-|
Gb|--0----0----0----0---0----2---2---2---2--2---2---2---2---2--2----0----0---0---0--0-0-|
Db|-(2)--(2)--(2)--(2)-(2)---2---2---2---2--2---0---0---0---0--0---(0)--(0)-(0)---------|
Ab|-(2)--(2)--(2)--(2)-(2)---0---0---0---0--0----------------------(2)--(2)-(2)---------|
Eb|-(0)--(0)--(0)--(0)-(0)-----------------------------------------(3)--(3)-(3)---------|

Guitar 1
eb|--0----0----0----0---0----0---0---0---0--0---2---2------------|
Bb|--0----0----0----0---0----1---1---1---1--1---3---3------------|
Gb|--0----0----0----0---0----2---2---2---2--2---2---2------------|
Db|-(2)--(2)--(2)--(2)-(2)---2---2---2---2--2---0---0----/10\----|
Ab|-(2)--(2)--(2)--(2)-(2)---0---0---0---0--0------------/10\----|
Eb|-(0)--(0)--(0)--(0)-(0)-------------------------------/8-\----|
Guitar 2**********************************************************
eb|--0----0----0----0---0----0---0---0---0--0---2---2---2---2--2-|
Bb|--0----0----0----0---0----1---1---1---1--1---3---3---3---3--3-|
Gb|--0----0----0----0---0----2---2---2---2--2---2---2---2---2--2-|
Db|-(2)--(2)--(2)--(2)-(2)---2---2---2---2--2---0---0---0---0--0-|
Ab|-(2)--(2)--(2)--(2)-(2)---0---0---0---0--0--------------------|
Eb|-(0)--(0)--(0)--(0)-(0)---------------------------------------|


[Solo]

Guitar 1
eb|----------------------------------------------------------------------------------|
Bb|----------------------------------------------------------------------------------|
Gb|----------------------------------------------------------------------------------|
Db|--5-5-7--9--9---10~------------4-4-5--7--7--9~------------5--7--9--9---10~~~~b11--|
Ab|----------------------------------------------------------------------------------|
Eb|----------------------------------------------------------------------------------|
Guitar 2******************************************************************************
eb|----------------------------------------------------------------------------------|
Bb|----------------------------------------------------------------------------------|
Gb|----------------------------------------------------------------------------------|
Db|-----------------2--4--5--6—6s7~------------0--2--4--4--5~------------------------|
Ab|----------------------------------------------------------------------------------|
Eb|----------------------------------------------------------------------------------|

Guitar 1
eb|----------------------------------------------------------------------------------------|
Bb|----------------------------------------------------------------------------------------|
Gb|------------------------7---------------------------------------------------------------|
Db|-----------------------------9-9-9-7s9-9-9-7b8-7b8-5-5-5--7--9--9---10~-----------------|
Ab|----------------------------------------------------------------------------------------|
Eb|----------------------------------------------------------------------------------------|
Guitar 2************************************************************************************
eb|----------------------------------------------------------------------------------------|
Bb|--8--8--7-------------------------------------------------------------------------------|
Gb|----------------------------------------------------------------------------------------|
Db|-----------9--7-7-5--4--4---2-2---4---5---4b-4b----2-----------------------2--4--5--7~--|
Ab|----------------------------------------------------------------------------------------|
Eb|----------------------------------------------------------------------------------------|

Guitar 1
eb|---------------------------------------------------------------------------------------|
Bb|-------------------15-15-15-15-15-15-15-15-15--15--15--15--15--15--15--13--13--13--13--|
Gb|--------------------x--x--x--x--x--x--x--x--x---x---x---x---x---x---x---x---x---x---x--|
Db|--7--9--10--10s12--12-12-12-12-12-12-12-12-12--12--12--12--12--12--12--10--10--10--10--|
Ab|---------------------------------------------------------------------------------------|
Eb|---------------------------------------------------------------------------------------|
Guitar 2***********************************************************************************
eb|---------------------------------------------------------------------------------------|
Bb|---------------------------------------------------------------------------------------|
Gb|-----------------------------------------------14----16----17----16----16----14----14--|
Db|----------------------------------/16----17--------------------------------------------|
Ab|---------------------------------------------------------------------------------------|
Eb|---------------------------------------------------------------------------------------|

Guitar 1
eb|-------------------------------------------------------|
Bb|--12--12--12--12--10--10--10--10--8--8--8--8--7--7--8--|
Gb|---x---x---x---x---x---x---x---x--x--x--x--x--x--x--x--|
Db|---9---9---9---9---7---7---7---7--5--5--5--5--4--4--5--|
Ab|-------------------------------------------------------|
Eb|-------------------------------------------------------|
Guitar 2***************************************************
eb|-------------------------------------------------------|
Bb|-------------------------------------------------------|
Gb|-------------------------------------------------------|
Db|-------17-----17-----16-----16-----17----------16---17-|
Ab|-------------------------------------------------------|
Eb|-------------------------------------------------------|


Guitar 1
eb|-----------------------------------------------------------------------------------|
Bb|-----------------------------------------------------------------------------------|
Gb|-----------------------------------------------------------------7-7--7----7-7--7--|
Db|--5-5--5----9-9--9----10-10--10----5-5--5---10-10--10--5-5--5----7-7--7----7-7--7--|
Ab|--5-5--5----9-9--9----10-10--10----5-5--5---10-10--10--5-5--5----5-5--5----5-5--5--|
Eb|--3-3--3----7-7--7-----8--8---8----3-3--3----8--8---8--3-3--3----5-5--5----5-5--5--|
P.M. ^ ^       ^ ^        ^  ^        ^ ^       ^  ^       ^ ^       ^ ^       ^ ^
eb|------------------------------------------------------------------------------------|
Bb|------------------------------------------------------------------------------------|
Gb|--9-9--9----------------------------------------------------------7-7--7----7-7--7--|
Db|--9-9--9----9-9--9----10-10--10----5-5--5---10-10--10---5-5--5----7-7--7----7-7--7--|
Ab|--7-7--7----9-9--9----10-10--10----5-5--5---10-10--10---5-5--5----5-5--5----5-5--5--|
Eb|--7-7--7----7-7--7-----8--8---8----3-3--3----8--8---8---3-3--3----5-5--5----5-5--5--|
P.M. ^ ^       ^ ^        ^  ^        ^ ^       ^  ^       ^ ^       ^ ^       ^ ^

Final Chorus

Guitar 1
eb|---------------------------------------------------------------------------------|
Bb|---------------------------------------------------------------------------------|
Gb|--5--4--2----2----7----7----9----9--------------------------5----5----7----7-----|
Db|--5--5--2----2----7----7----9----9----10----10----5----5----5----5----7----7-----|
Ab|--3--2--0----0----5----5----7----7----10----10----5----5----3----3----5----5-----|
Eb|------------------5----5----7----7-----8-----8----3----3----3----3----5----5-----|
Guitar 2*****************************************************************************
eb|---------------------------------------------------------------------------------|
Bb|---------------------------------------------------------------------------------|
Gb|--5--4--2----2----7----7----9----9--------------------------5----5----7----7-----|
Db|--5--5--2----2----7----7----9----9----10----10----5----5----5----5----7----7-----|
Ab|--3--2--0----0----5----5----7----7----10----10----5----5----3----3----5----5-----|
Eb|------------------5----5----7----7-----8-----8----3----3----3----3----5----5-----|


Guitar 1
eb|-15-15-15-15-14-14-14-14--12-12-7-7---------------------------------------------|
Bb|--x--x--x--x--x--x--x--x---x--x-x-x---------------------------------------------|
Gb|-12-12-12-12-11-11-11-11---9--9-4-4-------5----5--------------7----7----7----7--|
Db|------------------------------------------5----5----5----5----7----7----7----7--|
Ab|------------------------------------------3----3----5----5----5----5----5----5--|
Eb|------------------------------------------3----3----3----3----5----5----5----5--|
Guitar 2****************************************************************************
eb|--------------------------------------------------------------------------------|
Bb|--------------------------------------------------------------------------------|
Gb|------------------------------------------5----5--------------7----7----7----7--|
Db|--5----5----9----9---10---10----5----5----5----5----5----5----7----7----7----7--|
Ab|--5----5----9----9---10---10----5----5----3----3----5----5----5----5----5----5--|
Eb|--3----3----7----7----8----8----3----3----3----3----3----3----5----5----5----5--|

Guitar 1
eb|--------------------------------------------------------------------------------|
Bb|--------------------------------------------------------------------------------|
Gb|--9----9----------------------------------5----5--------------7----7----7----7--|
Db|--9----9----9----9---10---10----5----5----5----5----5----5----7----7----7----7--|
Ab|--7----7----9----9---10---10----5----5----3----3----5----5----5----5----5----5--|
Eb|--7----7----7----7----8----8----3----3----3----3----3----3----5----5----5----5--|
Guitar 2****************************************************************************
eb|--------------------------------------------------------------------------------|
Bb|--------------------------------------------------------------------------------|
Gb|--9----9----------------------------------5----5--------------7----7----7----7--|
Db|--9----9----9----9---10---10----5----5----5----5----5----5----7----7----7----7--|
Ab|--7----7----9----9---10---10----5----5----3----3----5----5----5----5----5----5--|
Eb|--7----7----7----7----8----8----3----3----3----3----3----3----5----5----5----5--|


Guitar 1
eb|---------------------------------------------------------------------------------|
Bb|---------------------------------------------------------------------------------|
Gb|--5--4--2----2----7----7----9----9--------------------------5----5----7----7-----|
Db|--5--5--2----2----7----7----9----9----10----10----5----5----5----5----7----7-----|
Ab|--3--2--0----0----5----5----7----7----10----10----5----5----3----3----5----5-----|
Eb|------------------5----5----7----7-----8-----8----3----3----3----3----5----5-----|
Guitar 2*****************************************************************************
eb|---------------------------------------------------------------------------------|
Bb|---------------------------------------------------------------------------------|
Gb|--5--4--2----2----7----7----9----9--------------------------5----5----7----7-----|
Db|--5--5--2----2----7----7----9----9----10----10----5----5----5----5----7----7-----|
Ab|--3--2--0----0----5----5----7----7----10----10----5----5----3----3----5----5-----|
Eb|------------------5----5----7----7-----8-----8----3----3----3----3----5----5-----|

Guitar 1
eb|---------------------------------------------------------------------------------|
Bb|---------------------------------------------------------------------------------|
Gb|----------------------5----5----7----7------------------------5----5----7----7---|
Db|--5----5----5----5----5----5----7----7----5----5----5----5----5----5----7----7---|
Ab|--5----5----5----5----3----3----5----5----5----5----5----5----3----3----5----5---|
Eb|--3----3----3----3----3----3----5----5----3----3----3----3----3----3----5----5---|
Guitar 2*****************************************************************************
eb|--15-15-15-15-15-15-15-15-15-15-15-14-14-15-15-15-15-15-15-15-15-15-15-15-14-14--|
Bb|---x--x--x--x--x--x--x--x--x--x--x--x--x--x--x--x--x--x--x--x--x--x--x--x--x--x--|
Gb|--12-12-12-12-12-12-12-12-12-12-12-11-11-12-12-12-12-12-12-12-12-12-12-12-11-11--|
Db|---------------------------------------------------------------------------------|
Ab|---------------------------------------------------------------------------------|
Eb|---------------------------------------------------------------------------------|

Guitar 1
eb|-------------------------------------------------------------|
Bb|-------------------------------------------------------------|
Gb|-------------------------------------------------------------|
Db|--15~--------------------------------------------------------|
Ab|---x~--------------------------------------------------------|
Eb|--12~--------------------------------------------------------|
Guitar 2*********************************************************
eb|-------------------------------------------------------------|
Bb|-------------------------------------------------------------|
Gb|-------------------------------------------------------------|
Db|---5~--------------------------------------------------------|
Ab|---5~--------------------------------------------------------|
Eb|---3~--------------------------------------------------------|



************************************

Key:
/  slide up
\  slide down
h  hammer-on
p  pull-off
v  vibrato
*  harmonic
b  bend
r  release
~  sustain
PM palm mute

************************************

            
            
Suggest correction
Creating personal tab
Creating personal tab
You can edit any tab online and save it as your Personal.

You can edit, replace or remove any tab part or add personal notes – all changes will be seen only by you.

Personal tabs can be accessed anytime from any device, even offline.
Learn more »
comments
print report bad tab
4 comments total. Showing first comments.
0 reply
1ellisd1 10 Jul 18, 2011 09:08 AM

Seen better tabs before

0 reply
Jackchaos3 52 Dec 30, 2013 10:01 PM

solo wrong

0 reply
milky14 69 Oct 07, 2014 06:23 PM

Clearly wrong. its BAD. why the **** do I have a ****ing explanation? **** you UG. your news articles blow cock. its like a ****ing 12 year old in english class wrote them.

guest
You may want to rate the tab now too:
select rating
Wanna post a correction for this tab? Suggest correction