Oops, an error
Loading. Please wait.

Pink Triangle tab

version 3
version 3

Whole song

Interactive

by Weezer
2,636 views 6 this week
1 commentread comment
1 2 3 4 5
x 3
add to favorites
×
Save as Personal and add changes to this tab that will be seen only by you. Learn more ›
×
You can save this tab as Personal to edit and correct it or add notes. All changes will be seen only by you. Learn more »
launch autoscroll
font size
0
reset
how to read this tab
guitar tuner
edit
Autoscroll
slow
fast
+/-
esc
set tempo
stop
This is my guitar tab for Pink Triangle. I've seen a few wrong tabs on here so i decided 
to put the one I think is right. As for the solo I only have the first little lick of 
it so yeah..Here it is folks!

Tunning: Eb Ab Db Gb Bb Eb

[Intro/Guitar one]
Eb----------------------|----------------------|
Bb----------------------|----------------------|
Gb---0---2---4--------2-|-0------------0-------| Repeat this Four Times
Db-----0---0----4---0---|---0--4----0----------|
Ab----------------------|----------------------|
Eb----------------------|----------------------|

[Intro/Guitar two]
Eb-------------------|-------------------------|
Eb--3---5----7-----5-|----3----2----3----------|
Bb-------------------|-------------------------|
Gb-------------------|-------------------------| Repeat this Four Times
Db-------------------|-------------------------|
Eb-------------------|-------------------------|

[Intro/Guitar three]
[Come in after guitar one and two play the lick written above twice]
Eb---10--/12-|---7--/8--|----3--/5-2|---3----------|
Bb-----------|----------|-----------|--------------|
Gb-----------|----------|-----------|--------------| Play This Twice
Db-----------|----------|-----------|--------------|
Ab-----------|----------|-----------|--------------|
Eb-----------|----------|-----------|--------------|

[Verse/Guitar One]
Eb--0----|--0----|---2--|---3---3---|------------------------|
Bb--0----|--1----|---3--|---3---3---|------------------------|
Gb--x----|--2----|---2--|---0---0---|------------------------|
Db--2----|--2----|---0--|---0---0---|------------------------|Play four Times
Ab--2----|--0----|---x--|---2---x---|------------------------|
Eb--0----|--x----|---x--|---3---2---|------------------------|

[Chorus/Guitar One]
Eb--------|---------|--------|---------|
Bb--------|---------|--------|--3------|
Gb------4-|---5-----|--5-----|--2------|
Db--5---4-|---5---5-|--5--5--|--0------|
Ab--5---2-|---3---5-|--3--5--|---------|
Eb--3-----|-------3-|-----3--|---------|


Eb------|-------|------|---|---------|-----|--------|--------|--------|
Bb------|-------|------|-3-|---------|-3---|--------|-----3-3|--------|
Gb-4--4-|--5----|-5----|-2-|-5--4--2-|-2--4|-5-5----|-5-5-2-2|--------|
Db-2--4-|--5--5-|-5--5-|-0-|-5--4--2-|-0--2|-5-5-5-5|-5-5-0-0|-5-5-5-5|
Ab----2-|--3--5-|-3--5-|---|-3--2--0-|-----|-3-3-5-5|-3-3----|-5-5-5-5|
Eb------|-----3-|----3-|---|---------|-----|-----3-3|--------|-3-3-3-3|

[Bridge]
 For the bridge, just play the Guitar One and Two parts of the intro.
 Don't play the guitar three part, because this time you only play
 the intro twice instead of four times like at the beginning of the
 song.

[Verse/Chorus]
[Guitar solo(Well what I know of the guitar solo)]
 
That's it. Thanks for using my tab guys, I hope you found it useful! Please check out my 
other tabs that I plan on posting soon!
Suggest correction
Creating personal tab
Creating personal tab
You can edit any tab online and save it as your Personal.

You can edit, replace or remove any tab part or add personal notes – all changes will be seen only by you.

Personal tabs can be accessed anytime from any device, even offline.
Learn more »
Give kudos to tab author, rate the tab!
1 2 3 4 5
comments
print report bad tab
1 comment total.
0 reply
breadtruck 244 Nov 12, 2015 01:38 PM

Missing a few parts. The intro isn't right either. Listen to the live or acoustic version and you'll hear that Brian plays the intro on one guitar using finger picking - it's more compliated than just alternating between two strings. On the studio version there is a higher overdub but I think it's just the same thing up an octave.

guest
You may want to rate the tab now too:
select rating
Wanna post a correction for this tab? Suggest correction