Oops, an error
Loading. Please wait.
We have an official Pork And Beans tab made by UG professional guitarists. Check out the tab »
×
by Weezer
30,540 views 12 this week
4 commentsread comments
1 2 3 4 5
x 12
add to favorites
×
Save as Personal and add changes to this tab that will be seen only by you. Learn more ›
×
You can save this tab as Personal to edit and correct it or add notes. All changes will be seen only by you. Learn more »
launch autoscroll
font size
0
reset
guitar tuner
backing track
0:00
0:00
edit
Autoscroll
slow
fast
+/-
esc
set tempo
stop
----------------------------------------------------------------------------
                         Weezer-Pork and Beans
----------------------------------------------------------------------------
Tuning:Half Step Down(Gb Db Ab Eb)

Tabbed by:WARNINGnimrod12
Email:WARNINGnimrod182@aim.com



   Well, there is actually no bass in the verse, so here's the rest of it!



  CHORUS x4

   Gb|---------------------------------------------------------------------|
   Db|---------------------------------------------------------------------|
   Ab|-------------------5-5-5-5-5-5-5-5-----------------3-3-3-3-3-3-3-3---|
   Eb|---3-3-3-3-3-3-3-3-----------------0-0-0-0-0-0-0-0-------------------|


  VERSE 2(also no bass)

  CHORUS 2 x4

   Gb|---------------------------------------------------------------------|
   Db|---------------------------------------------------------------------|
   Ab|-------------------5-5-5-5-5-5-5-5-----------------3-3-3-3-3-3-3-3---|
   Eb|---3-3-3-3-3-3-3-3-----------------0-0-0-0-0-0-0-0-------------------|



  BRIDGE

   The bass and the guitar come in near the end of the bridge. It's played
   like this.

   Gb|------------------------------|
   Db|------------------------------|
   Ab|---2-2-2-2-2-2-2-2-3-3--3-5---|
   Eb|------------------------------|


  CHORUS 3 

  Gb|--------------------------------------------------------------------|
  Db|--------------------------------------------------------------------|
  Ab|-------------------5-5-5-5-5-5-5-5-----------------3-3-3-3-3-3-3-3--|x3
  Eb|---3-3-3-3-3-3-3-3-----------------0-0-0-0-0-0-0-0------------------|


  Gb|----------------------------------------------------------------------|
  Db|----------------------------------------------------------------------|
  Ab|-------------------5-5-5-5-5-5-5-5-----------------3-3-3-3-3-3-3-3----|
  Eb|---3-3-3-3-3-3-3-3-----------------0-0-0-0-0-0-0-0-----------------3/-|


    Then the guitar does some weird thing at the end, but that's it
    for the bass!



   ORDER:

   VERSE
   CHORUS x4
   VERSE 2
   CHORUS 2 x4
   BRIDGE
   CHORUS 3
Suggest correction
Creating personal tab
Creating personal tab
You can edit any tab online and save it as your Personal.

You can edit, replace or remove any tab part or add personal notes – all changes will be seen only by you.

Personal tabs can be accessed anytime from any device, even offline.
Learn more »
comments
print report bad tab
4 comments total. Showing first comments.
0 reply
TheWallSpeaks 135 Jun 23, 2008 05:02 PM

The chorus is an octave too low on the Eb note. Otherwise it's fine.

-2 reply
guitarboy48 486 Dec 12, 2008 09:52 AM

Why would you tab a song in Eb if it can be played in E, you should have made the 0 in the chorus an octave higher.

0 reply
Jake900210 10 Jul 06, 2009 03:32 AM

Doesn't sound right on the 0 just playing acoustic, but amped up its good to go.

guest
You may want to rate the tab now too:
select rating
Wanna post a correction for this tab? Suggest correction