Oops, an error
Loading. Please wait.

Pork And Beans Tab

version 1
version 1

Interactive

133,934 views 9 this week
31 commentsread comments
1 2 3 4 5
x 39
add to favorites
launch autoscroll
font size
0
reset
how to read this tab
guitar tuner
Autoscroll
slow
fast
+/-
esc
set tempo
stop
Help us to improve Ultimate-Guitar.com Take our survey!
×
Author
Difficulty
novice
Acoustic Intro/Verse
Eb :-----------------| 
Bb :-----------------| 
Gb :-----------------|
Db :-----------------|
Ab :------2-/9---7---|
Eb :3----------------|

Pre-Chorus
Eb :-------------------|
Bb :-------------------|
Gb :-------------------|
Db :5-5-*-5-5---*------|
Ab :5-5-*-5-5---*------|
Eb :3-3-*-3-3---*------|

Chorus
Eb :----------------|----------------|----------------|----------------|
Bb :----------------|----------------|----------------|----------------|
Gb :----------------|7-7-7-7-7-7-7-7-|----------------|5-5-5-5-5-5-5-5-|
Db :5-5-5-5-5-5-5-5-|7-7-7-7-7-7-7-7-|2-2-2-2-2-2-2-2-|5-5-5-5-5-5-5-5-|
Ab :5-5-5-5-5-5-5-5-|5-5-5-5-5-5-5-5-|2-2-2-2-2-2-2-2-|3-3-3-3-3-3-3-3-|
Eb :3-3-3-3-3-3-3-3-|5-5-5-5-5-5-5-5-|0-0-0-0-0-0-0-0-|3-3-3-3-3-3-3-3-|

Before Last Chorus
Eb :----------------|----------------|
Bb :----------------|----------------|
Gb :4-4-4-4-4-4-4-4-|5-5-*-5-7-*-----|
Db :4-4-4-4-4-4-4-4-|5-5-*-5-7-*-----|
Ab :2-2-2-2-2-2-2-2-|3-3-*-3-5-*-----|
Eb :2-2-2-2-2-2-2-2-|3-3-*-3-5-*-----|
Suggest correction
comments
print report bad tab
31 comments total. Showing first comments.
0 reply
jjmilone23 10 Apr 26, 2008 08:47 PM

its pretty good but i think its tuned a half step down

0 reply
jjmilone23 10 Apr 26, 2008 08:48 PM

o wait srry i didnt look at it close enough

0 reply
Era_ForThe_Deaf 364 Apr 28, 2008 04:00 PM

I think that the second half of the chorus is just:


B|(12)---(12)---(12)---(12)---(12)---(12)---(12)---(12)--(12)---|
G|15B17-15b17-15b17-15b17-15b17-15b17-15b17-15b17-15b17-|

guest
You may want to rate the tab now too:
select rating
Wanna post a correction for this tab? Suggest correction