Oops, an error
Loading. Please wait.
We have an official Pork And Beans tab made by UG professional guitarists. Check out the tab »
×
by Weezer
193 views 3 this week
1 commentread comment
1 2 3 4 5
3 more votes to show rating
add to favorites
×
Save as Personal and add changes to this tab that will be seen only by you. Learn more ›
×
You can save this tab as Personal to edit and correct it or add notes. All changes will be seen only by you. Learn more »
launch autoscroll
font size
0
reset
how to read this tab
guitar tuner
backing track
0:00
0:00
edit
Autoscroll
slow
fast
+/-
esc
set tempo
stop
Author
Difficulty
Pork and Beans., by Weezer
Tabbed by The Forrest Dylan W.

You should be able to figure it out. The Bridge part is played slower and you just have to find the
rhythm. 

I think this is the only correct one up.

Intro:

E|--------------|
B|--------------|
G|--------------|
D|--------3--1--|
A|-----1--------|
E|--2-----------|




The Thing Before The Main Thing:

E|-----------|
B|-----------|
G|-----------|
D|-4-4---4-4-|
A|-4-4---4-4-|
E|-2-2---2-2-|




Main Thing:

E|-------------------------------------------------------|
B|-------------------------------------------------------|
G|---------------6-6-6-6-6-6---8-8-8-8-8-8---4-4-4-4-4-4-|
D|-4-4-4-4-4-4---6-6-6-6-6-6---8-8-8-8-8-8---4-4-4-4-4-4-|
A|-4-4-4-4-4-4---4-4-4-4-4-4---6-6-6-6-6-6---2-2-2-2-2-2-|
E|-2-2-2-2-2-2-------------------------------------------|




The Part Were Its All Like "I Don't Care" A Lot (Bridge):

E|-------------------------------------|
B|-------------------------------------|
G|-------------------8-8-8-8-8-8-8-8---|
D|-8-8-8-8-8-8-8-8---8-8-8-8-8-8-8-8---|
A|-8-8-8-8-8-8-8-8---6-6-6-6-6-6-6-6---|
E|-6-6-6-6-6-6-6-6---------------------| 


E|-----------------------------------------------------------|
B|-----------------------------------------------------------|
G|-10-10---11-11---10-10---8-8-------------------------------|
D|-10-10---11-11---10-10---8-8---8-8-8-8-8-8-8-8---4-4---4-4-|
A|-8--8----9--9----8--8----6-6---8-8-8-8-8-8-8-8---4-4---4-4-|
E|-------------------------------6-6-6-6-6-6-6-6---2-2---2-2-|

            
            
Suggest correction
Creating personal tab
Creating personal tab
You can edit any tab online and save it as your Personal.

You can edit, replace or remove any tab part or add personal notes – all changes will be seen only by you.

Personal tabs can be accessed anytime from any device, even offline.
Learn more »
Give kudos to tab author, rate the tab!
1 2 3 4 5
comments
print report bad tab
1 comment total.
0 reply
shaotempilot 33 Apr 15, 2017 07:05 PM

The "I don't care" part after the second chorus (I guess you can call this the bridge) is the following:
Bb5
I don't care,
Eb5
I don't care,
Bb5
I don't care, I don't care, I don't care,I don't
Eb5
care

(if you choose to play the real chords, it's Bbm and Ebm)

Then B5 to C#5 (or B to C#) leading back into the final chorus

guest
You may want to rate the tab now too:
select rating
Wanna post a correction for this tab? Suggest correction