Oops, an error
Loading. Please wait.
We have an official Say It Aint So tab made by UG professional guitarists. Check out the tab »
×
by Weezer
9,771 views 1 this week
no commentswrite comment
1 2 3 4 5
x 3
add to favorites
launch autoscroll
font size
0
reset
guitar tuner
backing track
0:00
0:00
Autoscroll
slow
fast
+/-
esc
set tempo
stop
Difficulty
novice
-------------------------------------------------------------------------------
			     SAY IT AINT SO - Weezer
-------------------------------------------------------------------------------

Tabbed By : karl tee

I don't really like tuning out all my strings just for a song. So I decided to transpose 
it in a way that was done in standard tuning.


Intro/verse
G----------------------|
D------3-4-5-----------|
A--3--------------6~(6)|
E----3-------4~(4)-----|


Chorus 1 (ad-lib the chorus if you like)
G------------------------|
D------------------------|
A--3-3------------6~(6)--|
E-------3-3--4-4---------|
 (Play 4 Times)


Chorus 2(a)
G------------------------|
D------------------------|
A--3-3------------6~(6)--|
E-------3-3--4-4---------|
 (Play 3 Times)


Chorus 2 (b)
G------------------------|
D------------------------|
A--3333-----------6~-----|
E-------3333--444--------|
 [Play once after 2(a)]


Bridge -Dear Daddy part-
G---------------------------|
D---------------------------|
A--1-1-1-------6-6-6--------|
E-------5-5-5--------2-2-2--|
(Play 4 Times) - listen to the song for the rhythm


Solo is the chorus/verse part just sync it in there. It'll sound great.

That's it, my first tab. Song is fun to jam with friends or to play along to, have fun!
Suggest correction
Give kudos to tab author, rate the tab!
1 2 3 4 5
comments
print report bad tab
guest
Wanna post a correction for this tab? Suggest correction