Oops, an error
Loading. Please wait.

Say It Aint So Bass Tab

version 5
4,878 views 3 this week
no commentswrite comment
1 2 3 4 5
x 3
add to favorites
launch autoscroll
font size
0
reset
guitar tuner
×
Best way to learn
"Say It Aint So"
Autoscroll
slow
fast
+/-
esc
set tempo
stop
Tabbed By : jaronthebassist

                             Say It Ain't So                               


                                                                     Weezer
Bass



                       Q    E  Q    E  E  E     Q    E  Q    E  E  E   3x
G||-------|-------||-------------------------|-------------------------||
D||-------|-------||*---------------3--3--5--|------------------5--8--*||
A||-------|-------||*--3---------------------|----------6----6--------*||
E||-------|-------||-----------3-------------|--4----------------------||


  Q    E  H        E       Q    E  Q    E  E  E   
----------------------||-------------------------|
----------------------||*---------------3--3--5--|
----------6--------L--||*--3---------------------|
--4-------------------||-----------3-------------|


  Q    E  Q    E  E  E   5x  Q    E  H        E   
-------------------------||----------------------|
------------------5--8--*||----------------------|
----------6----6--------*||----------6--------L--|
--4----------------------||--4-------------------|


    Q    E  Q    E  E  E     Q    E  Q    E  E  E   3x
|-------------------------|-------------------------||
|*---------------3--3--5--|------------------5--8--*||
|*--3---------------------|----------6----6--------*||
|-----------3-------------|--4----------------------||


   E  E  Q    E  E  Q       E  E  E  Q    Q.      4x
-------------------------|------------------------||
*------------------------|-----------------------*||
*--3--3------------------|-----------6----6------*||
--------------3--3-------|--4--4------------------||


  E  E  E  Q    E  E  E       Q    E  Q    E  E  E   
-------------------------||-------------------------|
-------------------5--8--||*---------------3--3--5--|
-----------6----6--------||*--3---------------------|
--4--4-------------------||-----------3-------------|


  Q    E  Q    E  E  E       Q    E  H        E   
-------------------------||----------------------|
------------------5--8--*||----------------------|
----------6----6--------*||----------6--------L--|
--4----------------------||--4-------------------|


    Q    E  Q    E  E  E     Q    E  Q    E  E  E   4x
|-------------------------|-------------------------||
|*---------------3--3--5--|------------------5--8--*||
|*--3---------------------|----------6----6--------*||
|-----------3-------------|--4----------------------||


   E  E  Q    E  E  Q       E  E  E  Q    Q.      3x
-------------------------|------------------------||
*------------------------|-----------------------*||
*--3--3------------------|-----------6----6------*||
--------------3--3-------|--4--4------------------||


  E  E  E  E  E  E  E  E     E  E  E  E  H         
--------------------------|-----------------------|
--------------------------|-----------------------|
--3--3--3--3--------------|-----------6--L--------|
--------------3--3--3--3--|--4--4--4--------------|


    E  E  E  E  E  E  E  E     E  E  E  E  E  E  E  E     
|---------------------------|---------------------------||
|*--------------------------|--------------------------*||
|*--------------------------|--6--6-----6--9--9-----9--*||
|---6--6-----6--5--5-----5--|---------------------------||


  E  E  E  E  E  E  E  E     E  E  E  E  E  E  E  E   
--------------------------|--------------------------|
--------------------------|--------------------------|
-----------------8--6--5--|--6--6-----6--9--9-----9--|
--6--6-----6--5-----------|--------------------------|


  E  E  E  E  E  E  E  E     E  E  E  E  S S S S S S S S  
--------------------------|------------------------------|
--------------------------|------------------------------|
--------------------------|--6--6-----6--9-9-9-9-9-9-9-9-|
--6--6-----6--5--5-----5--|------------------------------|


    Q.     Q    Q    E     Q.     Q    Q    E   3x
|-----------------------|-----------------------||
|*----------------------|----------------------*||
|*--3-------------------|---------6----6----6--*||
|----------3----3----3--|--4--------------------||


  E  E  E  E  E  E  E  E     E  E  E  E  H         
--------------------------|-----------------------|
--------------------------|-----------------------|
--3--3--3--3--------------|-----------6--L--------|
--------------3--3--3--3--|--4--4--4--------------|


  E  E  Q    E  E  Q       E  E  E  Q    E  E  S S  
------------------------|--------------------------|
------------------------|--------------------------|
--3--3------------------|-----------6----6--8--6-5-|
-------------3--3-------|--4--4--------------------|


    E  E  Q    E  E  Q       E  E  E  Q    Q.        
|-------------------------|------------------------||
|*------------------------|-----------------------*||
|*--3--3------------------|-----------6----6------*||
|--------------3--3-------|--4--4------------------||


  E  E  E  E  E  E  E  E     E  E  E  E  H           W                  
--------------------------|-----------------------|-------------------||
--------------------------|-----------------------|-------------------||
--3--3--3--3--------------|-----------6--L--------|--L----------------||
--------------3--3--3--3--|--4--4--4--------------|-------------------||




Duration Legend
---------------
W - whole
H - half
Q - quarter
E - 8th
S - 16th
T - 32nd
X - 64th
. - note dotted
|-n-|  - n-tuplets


Tablature Legend
----------------
L - tied note
x - dead note
g - grace note
(n) - ghost note
> - accentuded note
NH - natural harmonic
AH - artificial harmonic
TH - tapped harmonic
SH - semi harmonic
PH - pitch harmonic
h - hammer on
p - pull off
b - bend
br - bendRelease
pb - preBend
pbr - preBendRelease
brb - bendReleaseBend
\n/ - tremolo bar dip
\n - tremolo bar dive
-/n - tremolo bar Release up
/n\ - tremolo bar inverted dip
/n - tremolo bar return
-\n - tremolo bar Release down
S - shift slide
s - legato slide
/ -  slide into from below or out of upwards
\ -  slide into from above or out of downwards
~ - vibrato
W - wide vibrato
tr - trill
TP - tremolo picking
T - tapping
S - slap
P - pop
< - fade in
^ - brush up
v - brush down
Suggest correction
Give kudos to tab author, rate the tab!
1 2 3 4 5
comments
print report bad tab
guest
You may want to rate the tab now too:
select rating
Wanna post a correction for this tab? Suggest correction