Oops, an error
Loading. Please wait.

Say It Aint So Tab

version 5
version 5
1,682,120 views 4,344 this week
76 commentsread comments
1 2 3 4 5
excellent!
x 488
add to favorites
launch autoscroll
font size
0
reset
how to read this tab
guitar tuner
Tab Pro tools
  • play this tab
  • loop segment
  • change instrument
  • show fretboard
  • metronome
Autoscroll
slow
fast
+/-
esc
set tempo
stop
Ok guys.. this is my favorite song so i'm going to make a COMPLETE tab of it
including bass line if you must!

Weezer
"Say it Ain't So"
Blue Album
Tabbed by: Jason
tuned 1/2 step down (Eb, Ab, Db, Gb, Bb, Eb)

intro (clean)
Eb-----4-4-x-0---------------5-5-------------|
Bb-4h5-5-5-x-0-------0-------5-5-------------|
Gb-4---4-4-x-5------5--5/-6--6-6--1--------9-|1st time w/o bass
Db-4h6-6-6-x-6-----6---6/-7--7-7--2--------9-|
Ab-4-------x-6--6------6/-7-------2---9h11---|
Eb---------x-4----4----4/-5-------0----------|
Bass intro/ verse
Gb------------------------|
Db------4-4-6-------------|
Ab-4----------0---------2-|
Eb----4----------0--0-4---|

After lead does intro part 2 times rythym comes in
Verse/ intro
Eb-4--4--4--4--5--4--4--4-|
Bb-5--4--4--4--5--5--5--5-|
Gb-6--5--5--5--6--4--4--4-|
Db------------------------|
Ab------------------------|
Eb------------------------|

verse
Eb-4--4--4--4--5--4--4--4-|Eb-4--4--4--4--5--4--4--4-|Eb-4--4--4--4--5--4--4--4-|
Bb-5--4--4--4--5--5--5--5-|Bb-5--4--4--4--5--5--5--5-|Bb-5--4--4--4--5--5--5--5-|
Gb-6--5--5--5--6--4--4--4-|Gb-6--5--5--5--6--4--4--4-|Gb-6--5--5--5--6--4--4--4-|
Db------------------------|Db------------------------|Db------------------------|
Ab------------------------|Ab------------------------|Ab------------------------|
Eb------------------------|Eb------------------------|Eb------------------------|
                          |                          |                          |
Gb------------------------|Gb------------------------|Gb------------------------|
Db------4-4-6-------------|Db------4-4-6-------------|Db------4-4-6-------------|
Ab-4----------0---------2-|Ab-4----------0---------2-|Ab-4----------0---------2-|
Eb----4----------0--0-4---|Eb----4----------0--0-4---|Eb----4----------0--0-4---|

Somebody's heinie            somebody's cold one         Guess i'll just close
Is crowding my ice box         is giving me chils           My eyes

Bass and rythym resume verse

Eb-----4-4-x-0---------------5-5-------------|Eb--------------------------------------|
Bb-4h5-5-5-x-0-------0-------5-5-------------|Bb-----------9----10/12-10----------9---|
Gb-4---4-4-x-5------5--5/-6--6-6--1--------9-|Gb----9-9----9----11/13-11-9h11p9---9-9-|
Db-4h6-6-6-x-6-----6---6/-7--7-7--2--------9-|Db----9-9h11---11----------------11---9-|
Ab-4-------x-6--6------6/-7-------2---9h11---|Ab-11-----------------------------------|
Eb---------x-4----4----4/-5-------0----------|Eb--------------------------------------|
  Oh yeah           All right                 Feels good                  Inside

Eb-4--4--4--4--5--4--4--4-|Eb-4--4--4--4--5--4--4--4-|Eb-4--4--4--4--5--4--4--4-|
Bb-5--4--4--4--5--5--5--5-|Bb-5--4--4--4--5--5--5--5-|Bb-5--4--4--4--5--5--5--5-|
Gb-6--5--5--5--6--4--4--4-|Gb-6--5--5--5--6--4--4--4-|Gb-6--5--5--5--6--4--4--4-|
Db------------------------|Db------------------------|Db------------------------|
Ab------------------------|Ab------------------------|Ab------------------------|
Eb------------------------|Eb------------------------|Eb------------------------|
                          |                          |                          |
Gb------------------------|Gb------------------------|Gb------------------------|
Db------4-4-6-------------|Db------4-4-6-------------|Db------4-4-6-------------|
Ab-4----------0---------2-|Ab-4----------0-------5h7-|Ab-4----------0---------2-|
Eb----4----------0--0-4---|Eb----4----------0--0-----|Eb----4----------0--0-4---|
 Flip on the tele            Something is a bublin      The bottle is ready
   Wrestle with Jimmy          inin behind my back          To blow

Chorus (switch on distortion)
Eb---------------------------|
Bb---------------------------|\
Gb-66------------------------| \
Db-66----66----77---2--2--2--|  \
Ab-44----66----77---2--2--2--|   \
Eb-------44----55---0--0--0--|    \x 4
                             |    /
Gb---------------------------|   /
Db---------------------------|  /
Ab-44------------------------| /
Eb-------44----55---0--0--0--|/
Say it ain't so whoaoa
Your drug is a heart breaker
Say it ain't so whoaoa
My love is a life taker

Rythym and bass play verse part twice
Eb-----4-4-x-0---------------5-5--------7--|11-7-9---7--------------------------|
Bb-4h5-5-5-x-0-------0-------5-5--9----7---|-------9-----7----------------------|
Gb-4---4-4-x-5------5--5/-6--6-6--9---8----|-----------9---9br-8h9----6h8---6---|
Db-4h6-6-6-x-6-----6---6/-7--7-7--9--9-----|-----------------------11-----9---6-|
Ab-4-------x-6--6------6/-7-------7--------|------------------------------------|
Eb---------x-4----4----4/-5----------------|------------------------------------|

Verse x 2
I can't confront you, I never could do
That which might hurt you, so try and be cool when i say

Fill for lead guitar (clean)
Eb-------------------------|
Bb-------------------------|
Gb-6-----------------------|
Db-6-----6-----7----2------|x2
Ab-4-----6-----7----2------|
Eb-------4-----5----0------|
This way is a waterslide away from me that takes you further every day
So be cool

Chorus
Eb---------------------------|
Bb---5-----------------------|\
Gb-667brb--5-----------------| \
Db-66----667brb77---2--2--2--|  \
Ab-44----66----77---2--2--2--|   \
Eb-------44----55---0--0--0--|    \x 3
                             |    /
Gb---------------------------|   /
Db---------------------------|  /
Ab-44------------------------| /
Eb-------44----55---0--0--0--|/
Say it ain't so whoaoa
Your drug is a heart breaker
Say it ain't so whoaoa

Eb---------------------------|
Bb---------------------------|
Gb-6-6-6-6-5-5-5-5-6-6-6-----|
Db-6-6-6-6-6-6-6-6-7-7-7--2--|
Ab-4-4-4-4-6-6-6-6-7-7-7--2--|
Eb-4-4-4-4-4-4-4-4-5-5-5--0--|
                             |
Gb---------------------------|
Db---------------------------|
Ab-4-4-4-4-------------------|
Eb---------4-4-4-4-5-5-5--0--|
My love is a life taker

Bridge
Eb-----------------------------------|
Bb-----------------------------------|
Gb-----------------------------------|
Db-9(9)9----9-9-9----9-2-2----2-5-5--|
Ab-9(9)9----9-9-9----9-2-2----2-5-5--|x 3 (play parentheses on third time
Eb-7(7)7----7-6-6----6-0-0----0-3-3--|
                                     |
Gb-----------------------------------|
Db-----------------------------------|
Ab-----------------------------------|
Eb-7(7)7----7-6-6----6-0-0----0-3-3--|
...........|9-7-6| bass fill play third time through
Dear Daddy I write you
In spite of years of silence
You've cleaned up found jesus
Things are good or so i hear
This bottle of Steven's
Awakens ancient feelings

Eb--------------------------------------|
Bb--------------------------------------|
Gb--------------------------------------|
Db-9-9----9-9-9----9-2-2----2-55555555--|
Ab-9-9----9-9-9----9-2-2----2-55555555--|
Eb-7-7----7-6-6----6-0-0----0-33333333--|
                                        |
Gb--------------------------------------|
Db--------------------------------------|
Ab--------------------------------------|
Eb-7-7----7-6-6----6-0-0----0-33333333--|
Like father! step father!
your son is drowning in the-

Riff A
Eb--------------------|
Bb--------------------|
Gb-6---5-5---6---1-1--|
Db-6---6-6---7---2-2--|
Ab-4---6-6---7---2-2--|
Eb-4---4-4---5---0-0--|
                      |
Gb--------------------|
Db--------------------|
Ab-4------------------|
Eb-----4-4---5---0-0--|
flood!!
yeah yeah yeah, yeah yeah

Solo (rythym riff A twice)

Eb---------------------------------|--------------------------------------|
Bb-19br-17-16~----16---------------|-19br-17-16~----16--------------------|
Gb--------------18--18-18br-16-----|--------------18--18 18brp16-18b-18b--|
Db-----------------------------18~-|--------------------------------------|
Ab---------------------------------|--------------------------------------|
Eb---------------------------------|--------------------------------------|

                 in parentheses played by different guitar
Eb-------16--------(-------16-------)|-------1614h16p14----16br----16-----|
Bb-----17--19p1716-(-----17--19p1716)|-----17----------16~------19----17~~|
Gb16s18------------(16s18-----------)|16s18-------------------------------|
Db-----------------------------------|------------------------------------|
Ab-----------------------------------|------------------------------------|
Eb-----------------------------------|------------------------------------|
                                     |                                    |
Eb-----------------------------------|------------------------------------|
Bb-----------------------------------|------------------------------------|
Gb--6-6-6-6-6-6-6-6-5-5-5-5-5-5-5-5--|--6-6-6-6-6-6-6-6-1------1----1-----|
Db--6-6-6-6-6-6-6-6-6-6-6-6-6-6-6-6--|--7-7-7-7-7-7-7-7-2------2----2-----|
Ab--4-4-4-4-4-4-4-4-6-6-6-6-6-6-6-6--|--7-7-7-7-7-7-7-7-2------2----2-----|
Eb--4-4-4-4-4-4-4-4-4-4-4-4-4-4-4-4--|--5-5-5-5-5-5-5-5-0------0----0-----|
                                     |                                    |
Gb-----------------------------------|------------------------------------|
Db-----------------------------------|------------------------------------|
Ab--4-4-4-4-4-4-4-4------------------|------------------------------------|
Eb------------------4-4-4-4-4-4-4-4--|--5-5-5-5-5-5-5-5-0------0----0-----|

Back to chorus.. repeat intro after chorus with random feedback and no bass.
thats all!
comments
print report bad tab
76 comments total. Showing first comments.
+14 reply
puddler wrote on March 4 2004, 12:00 am

good song. well done.

+13 reply
puddler wrote on March 4 2004, 12:00 am

ive finished now. supurb work. im impressed and thats not easy to do.

+10 reply
Kirt wrote on June 24 2004, 12:00 am

Great tab! I love Weezer, and I've been looking for tabs for a long time to play this.

Good work!

I want to post or [tab]
guest
You may want to rate the tab now too:
select rating
Please do not post tabs as comments. Select "correction" instead!