Oops, an error
Loading. Please wait.

Say It Aint So Bass Tab

version 8
751 views 3 this week
no commentswrite comment
1 2 3 4 5
2 more votes to show rating
add to favorites
launch autoscroll
font size
0
reset
guitar tuner
backing track
0:00
0:00
×
Best way to learn
"Say It Aint So"
Autoscroll
slow
fast
+/-
esc
set tempo
stop
Author
Tuning
  follow
D# G# C# F#
"SAY IT AIN'T SO"

by WEEZER

From the album 'WEEZER' aka 'BLUE ALBUM' (1994)



BASS GUITAR TUNING = 1/2 STEP DOWN (Eb G# C# F#)

TEMPO = approx. 75bpm

TIME SIGNATURE = 4/4




|----------------------------- INTRO (0:00) ----------------------------|
|                                                                       |
|                                                                       |
| E E E E E E E E   E E E E E E E E   E E E E E E E E   E E E E E E E E |
|--------r--------|--------r--------|-----------------|-----------------|
|--------e--------|--------e--------|-----------4-4-6-|-----------------|
|--------s--------|--------s--------|-4---------------|-0-------------2-|
|--------t--------|--------t--------|-------4---------|-------0---0-4---|

  E E E E E E E E   E E E E E E E E   E E E E E E E E   E E E E E E E E
|-----------------|-----------------|-----------------|-----------------|
|-----------4-4-6-|-----------------|-----------4-4-6-|-----------------|
|-4---------------|-0-------------2-|-4---------------|-0---------------|
|-------4---------|-------0---0-4---|-------4---------|-------0---------|



|---------------------------- VERSE 1a (0:25) --------------------------|
|                                                                       |
|                                                                       |
| E E E E E E E E   E E E E E E E E   E E E E E E E E   E E E E E E E E |
|-----------------|-----------------|-----------------|-----------------|
|-----------4-4-6-|-----------------|-----------4-4-6-|-----------------|
|-4---------------|-0-------------2-|-4---------------|-0-------------2-|
|-------4---------|-------0---0-4---|-------4---------|-------0---0-4---|

  E E E E E E E E   E E E E E E E E   E E E E E E E E   E E E E E E E E
|-----------------|-----------------|-----------------|-----------------|
|-----------4-4-6-|-----------------|-----------4-4-6-|-----------------|
|-4---------------|-0-------------2-|-4---------------|-0-------------2-|
|-------4---------|-------0---0-4---|-------4---------|-------0---0-4---|

  E E E E E E E E   E E E E E E E E
|-----------------|-----------------|
|-----------4-4-6-|-----------------|
|-4---------------|-0---------------|
|-------4---------|-------0---------|



|---------------------------- VERSE 1b (0:57) --------------------------|
|                                                                       |
|                                                                       |
| E E E E E E E E   E E E E E E E E   E E E E E E E E   E E E E E E E E |
|-----------------|-----------------|-----------------|-----------------|
|-----------4-4-6-|-----------------|-----------4-4-6-|-----------------|
|-4---------------|-0-------------2-|-4---------------|-0---------7/7---|
|-------4---------|-------0---0-4---|-------4---------|-------0---------|

  E E E E E E E E   E E E E E E E E
|-----------------|-----------------|
|-----------4-4-6-|-----------------|
|-4---------------|-0---------------|
|-------4---------|-------0---------|



|--------------------------- CHORUS 1 (1:16) ---------------------------|
|                                                                       |
|                                                                       |
| E E E E E E E E   E E E E E E E E   E E E E E E E E   E E E E E E E E |
|-----------------|-----------------|-----------------|-----------------|
|-----------------|-----------------|-----------------|-----------------|
|-4-4-------------|-----------------|-4-4-------------|-----------------|
|---------4-4-----|-5-5---0---------|---------4-4-----|-5-5---0---------|

  E E E E E E E E   E E E E E E E E   E E E E E E E E   E E E E E E E E
|-----------------|-----------------|-----------------|-----------------|
|-----------------|-----------------|-----------------|-----------------|
|-4-4-------------|-----------7-----|-4-4-------------|-----------------|
|---------4-4-----|-5-5---0---------|---------4-4-----|-5-5---0---------|



|--------------------------- POST-CHORUS (1:41) ------------------------|
|                                                                       |
|                                                                       |
| E E E E E E E E   E E E E E E E E   E E E E E E E E   E E E E E E E E |
|-----------------|-----------------|-----------------|-----------------|
|-----------4-4-6-|-----------------|-----------4-4-6-|-----------------|
|-4---------------|-0-------------2-|-4---------------|-0---------------|
|-------4---------|-------0---0-4---|-------4---------|-------0---------|



|---------------------------- VERSE 2 (1:54) ---------------------------|
|                                                                       |
|                                                                       |
| E E E E E E E E   E E E E E E E E   E E E E E E E E   E E E E E E E E |
|-----------------|-----------------|-----------------|-----------------|
|-----------4-4-6-|-----------------|-----------4-4-6-|-----------------|
|-4---------------|-0-------------2-|-4---------------|-0-------------2-|
|-------4---------|-------0---0-4---|-------4---------|-------0---0-4---|

  E E E E E E E E   E E E E E E E E   E E E E E E E E   E E E E E E E E
|-----------------|-----------------|-----------------|-----------------|
|-----------4-4-6-|-----------------|-----------4-4-6-|-----------------|
|-4---------------|-0-------------2-|-4---------------|-0---------------|
|-------4---------|-------0---0-4---|-------4---------|-------0---------|



|--------------------------- CHORUS 2 (2:19) ---------------------------|
|                                                                       |
|                                                                       |
| E E E E E E E E   E E E E E E E E   E E E E E E E E   E E E E E E E E |
|-----------------|-----------------|-----------------|-----------------|
|-----------------|-----------------|-----------------|-----------------|
|-4-4-------------|-----------------|-4-4-------------|-------------7---|
|---------4-4-----|-5-5---0---------|---------4-4-----|-5-5---0---0-----|

  E E E E E E E E   E E E E E E E E   E E E E E E E E   E E E E E E E E
|-----------------|-----------------|-----------------|-----------------|
|-----------------|-----------------|-----------------|-----------------|
|-4-4-------------|-----------------|-4-4-4-4---------|-----------------|
|---------4-4-----|-5-5---0---------|---------4-4-4-4-|-5-5-5-0---------|



|---------------------------- BRIDGE (2:44) ----------------------------|
|                                                                       |
|                                                                       |
| E E E E E E E E   E E E E E E E E   E E E E E E E E   E E E E E E E E |
|-----------------|-----------------|-----------------|-----------------|
|-----------------|-----------------|-----------------|-----------------|
|-----------------|-----------------|-----------------|-----------------|
|-7-7---7-6-6---6-|-0-0---0-3-3---3-|-7-7---7-6-6---6-|-0-0---0-3-3---3-|

  E E E E E E E E   E E E E E E E E   E E E E E E E E   E E E E E E E E
|-----------------|-----------------|-----------------|-----------------|
|-----------------|-----------------|-----------------|-----------------|
|-----------9-7-6-|-----------------|-----------------|-----------------|
|-7-7---7-6-------|-0-0---0-3-3---3-|-7-7---7-6-6---6-|-0-0---0-33333333|



|-------------------------- GUITAR SOLO (3:10) -------------------------|
|                                                                       |
|                                                                       |
| E E E E E E E E   E E E E E E E E   E E E E E E E E   E E E E E E E E |
|-----------------|-----------------|-----------------|-----------------|
|-----------------|-----------------|-----------------|-----------------|
|-4---------------|-0---------------|-4-4-4-----------|-0-0-0-----------|
|-------4-------4-|-------0-------0-|-------4---4-4-4-|-------0---0-0-0-|

  E E E E E E E E   E E E E E E E E   E E E E E E E E   E E E E E E E E
|-----------------|-----------------|-----------------|-----------------|
|-----------------|-----------------|-----------------|-----------------|
|-4-4-4-----------|-0-0-0-----------|-4-4-4-4---------|-0-0-0-----------|
|-------4---4-4-4-|-------0---0-0-0-|---------4-4-4-4-|-------0---------|



|--------------------------- CHORUS 3 (3:35) ---------------------------|
|                                                                       |
|                                                                       |
| E E E E E E E E   E E E E E E E E   E E E E E E E E   E E E E E E E E |
|-----------------|----------/4-2---|-----------------|-----------------|
|-----------------|---------------42|-----------------|-----------------|
|-4-4-------------|-----------------|-4-4-------------|-----------------|
|---------4-4-----|-5-5---0---------|---------4-4-----|-5-5---0---------|

  E E E E E E E E   E E E E E E E E   E E E E E E E E   E E E E E E E E
|-----------------|-----------------|-----------------|-----------------|
|-----------------|-----------------|-----------------|-----------------|
|-4-4-------------|-----------------|-4-4-4-4---------|-----------------|
|---------4-4-----|-5-5---0---------|---------4-4-4-4-|-5-5-5-0---------|



 END
Suggest correction
Give kudos to tab author, rate the tab!
1 2 3 4 5
comments
print report bad tab
guest
You may want to rate the tab now too:
select rating
Wanna post a correction for this tab? Suggest correction