Oops, an error
Loading. Please wait.

Say It Aint So Bass Tab

version 8
9,054 views 30 this week
3 commentsread comments
1 2 3 4 5
x 10
add to favorites
launch autoscroll
font size
0
reset
guitar tuner
Autoscroll
slow
fast
+/-
esc
set tempo
stop
Help us to improve Ultimate-Guitar.com Take our survey!
×
Author
Difficulty
Tuning
novice
D# G# C# F# A# D#
-----------------------------------------------------------------------------
                             Say It Ain't So - Weezer
-----------------------------------------------------------------------------
Tabbed by: DoReMi
E-mail: adamgarcia311@yahoo.com

I saw a couple bass tabs on here, but they weren't perfect. So I went ahead and made
this one. This is my first tab, so it's not beautiful, but all the notes and fills are
there. During the chorus, the Eb-G-B isn't really clearly audible so I'm not too sure if 
it's there or not but I put it anyway, it's up to you if you want to do it or not. Please
rate and give feedback, thanks!

Tuning: Half a step down (Eb-Ab-Db-Gb)

  Intro: (Come in at 0:06)play x2 and then play this
G|------------------------------|------------------------------|
D|-------4-5-6------------------|-------4-5-6------------------|
A|-4--------------0---------2---|-4--------------0-------------|
E|----4--------------0--0-4-----|----4---------------0---------|

  1st Verse:(0:25)   Play this x4
G|------------------------------|------------------------------|
D|-------4-5-6------------------|-------4-5-6------------------|
A|-4--------------0---------2---|-4--------------0-------------|
E|----4--------------0--0-4-----|----4--------------0----------|
   Somebody's...

  2nd Verse:(0:57)
G|------------------------------|------------------------------|
D|-------4-5-6------------------|-------4-5-6--------------2---|
A|-4--------------0---------2---|-4--------------0-------0-----|
E|----4--------------0--0-4-----|----4--------------0----------|
   Flip on the...

G|------------------------------|
D|-------4-5-6------------------|
A|-4--------------0-------------|
E|----4--------------0---0-0-0--|


  Chorus: (1:16)    play x3
G|---------------------------|---------------------------|
D|---------------------------|---------------------------|
A|-4-4-------------------2---|-4-4-----------------------|
E|------4-4--5-5--0--0-4-----|------4-4--5-5--0----------|
              Say it ain't so

  Interlude: (1:41)
G|---------------|---------------|---------------|---------------|
D|-------4-5-6---|---------------|-------4-5-6---|---------------|
A|-4-------------|-0---------2---|-4-------------|-0-------------|
E|----4----------|----0--0-4-----|----4----------|----0----------|

  3rd Verse: (1:53)      play x4
G|------------------------------|
D|-------4-5-6------------------|
A|-4--------------0---------2---|
E|----4--------------0--0-4-----|
  I can't confront you...

  Chorus: (2:18)     play x3
G|---------------------------|-----------------------------|
D|---------------------------|-----------------------------|
A|-4-4-------------------2---|-4-4-444---------------------|
E|------4-4--5-5--0--0-4-----|----------4-4-4-4-5-5-5-0----|

  Bridge: (2:44)
G|----------------------------|----------------------------|
D|----------------------------|----------------------------|
A|----------------------------|----------------------------|
E|-7-7--7-6-6--6-0-0--0-3-3--3|-777--7-6-6--6-0-0--0-3-3--3|
  Dear Daddy...

G|----------------------------|-------------------------------|
D|----------------------------|-------------------------------|
A|---------9-7-6--------------|-------------------------------|
E|777--7-6-------0-0--0-3-3--3|-7-7--7-6-6--6-0-0--0-33333333-|

  Guitar Solo: (3:09) x1                               x2
G|----------------------|---------------------------------|
D|----------------------|---------------------------------|
A|-4--4-----------------|-4-444---------------------------|
E|------4--4-4-4-5----0-|-------4--4-4-4--5-555--0--0-0-0-|

G|--------------------------------------------------------|
D|--------------------------------------------------------|
A|-4--444--44---------------------------------------------|
E|--------------4--444--4---5--555-0----------------------|

  Chorus: (3:34)            x1                  x2
G|----------------------------|-------------------|
D|---------------------7-6-4--|-------------------|
A|-4-4------------------------|-4-4---------------|
E|------4-4--5-5--0--0--------|------4-4--5-5--0--|

G|-------------------------------|
D|-------------------------------|
A|-4--444--4---------------------|
E|------------4-4-4-4--5-555--0--|
| /  slide up
| \  slide down
| h  hammer-on
| p  pull-off
| ~  vibrato
| +  harmonic
| x  Mute note
=============================================================================
Suggest correction
comments
print report bad tab
3 comments total.
0 reply
DoReMi 51 Feb 20, 2013 11:28 PM

Quick little correction from the top, It should say Eb-G-Bb

+1 reply
kieranleopold 35 Jul 25, 2014 09:16 AM

Excellent work.

0 reply
cecilthesheep 37 Dec 18, 2015 02:30 AM

This is exactly right except for the fill in the first bar of the very last chorus. That bar should be:

G|-------------------2h4-2---|
D|-------------------------42|
A|-4-4-----------------------|
E|------4-4--5-5--0----------|

guest
You may want to rate the tab now too:
select rating
Wanna post a correction for this tab? Suggest correction