Oops, an error
Loading. Please wait.

Simple Pages Tab

version 2
version 2

Whole song

  • This is a simplified version which has complete an... Show more

Interactive

28 views 3 this week
no commentswrite comment
1 2 3 4 5
2 more votes to show rating
add to favorites
launch autoscroll
font size
0
reset
how to read this tab
guitar tuner
Autoscroll
slow
fast
+/-
esc
set tempo
stop
Help us to improve Ultimate-Guitar.com Take our survey!
×
Author
Difficulty
novice
About this tab version
This is a simplified version which has complete and detailed chords, which makes this tab easier to understand. Was this info helpful? Yes No
-----------------------
 Weezer - Simple Pages
-----------------------
Tabbed by Cole Y.
Tuning: E Standard (E A D G B E)
Album: Weezer(Green)
Link to video I used: https://www.youtube.com/watch?v=RpIpsIocgGw
Additional information: There are two guitars playing during this song, but I simplified
the two tracks into one so this tab could be easily played by one guitarist.

[Intro]
e|-----------------------------------------------------------------|
B|-7-7-7-7-7-7-7-7-7-7-7-7-7-7-9-6-6-6-6-6-6-6-6-6-6/9-9-9-10 -12 -|
G|-6-6-6-6-6-6-6-6-6-6-6-6-6-6-7-4-4-4-4-4-4-4-4-4-4---------------|
D|-4-4-4-4-4-4-4-4-4-4-4-4-4-4-5-2-2-2-2-2-2-2-2-2-2/6-6-6-7-7-9-9-|
A|-----------------------------------------------------------------|
E|-----------------------------------------------------------------|

[Verse]
e|-----------------------------------------------------------------|
B|-----------------------------------------------------------------|
G|-2-2-2-2-2-2-2-2---------------------------------7-7-7-7-7-7-7-7-|
D|-2-2-2-2-2-2-2-2-2-2-2-2-2-2-2-2-4-4-4-4-4-4-4-4-7-7-7-7-7-7-7-7-|
A|-0-0-0-0-0-0-0-0-2-2-2-2-2-2-2-2-4-4-4-4-4-4-4-4-5-5-5-5-5-5-5-5-|
E|-----------------0-0-0-0-0-0-0-0-2-2-2-2-2-2-2-2-5-5-5-5-5-5-5-5-|

e|-----------------------------------------------------------------|
B|-----------------------------------------------------------------|
G|-2-2-2-2-2-2-2-2---------------------------------7-7-7-7-7-7-7-7-|
D|-2-2-2-2-2-2-2-2-2-2-2-2-2-2-2-2-4-4-4-4-4-4-4-4-7-7-7-7-7-7-7-7-|
A|-0-0-0-0-0-0-0-0-2-2-2-2-2-2-2-2-4-4-4-4-4-4-4-4-5-5-5-5-5-5-5-5-|
E|-----------------0-0-0-0-0-0-0-0-2-2-2-2-2-2-2-2-5-5-5-5-5-5-5-5-|
 
[Chorus]
e|---------------------------------------------------------------------------------------------------|
B|---------------------------------------------------------------------------------------------------|
G|-6-6-6-6-6-6-6-6-6-----------6-6-6-7-7-7-7-7-7-7-7-----------------2-2-2-2-2-2-2-2-----------------|
D|-6-6-6-6-6-6-6-6-6-4-4-4-4-4-------7-7-7-7-7-7-7-7-2-2-2-2-2-2-2-2-2-2-2-2-2-2-2-2-2-2-2-2-2-2-2-2-|
A|-4-4-4-4-4-4-4-4-4-4-4-4-4-4-4-4-4-5-5-5-5-5-5-5-5-2-2-2-2-2-2-2-2-0-0-0-0-0-0-0-0-2-2-2-2-2-2-2-2-|
E|-4-4-4-4-4-4-4-4-4-2-2-2-2-2-----------------------0-0-0-0-0-0-0-0-----------------0-0-0-0-0-0-0-0-|

[Chorus (Continued)]
e|---------------------------------|
B|---------------------------------|
G|-7-7-7-7-7-7-7-7-7-7-7-6-6-6-4-4-|
D|-7-7-7-7-7-7-7-7-----------------|
A|-5-5-5-5-5-5-5-5-5-5-5-4-4-4-2-2-|
E|-5-5-5-5-5-5-5-5-----------------|

[Verse]
e|-----------------------------------------------------------------|
B|-----------------------------------------------------------------|
G|-2-2-2-2-2-2-2-2---------------------------------7-7-7-7-7-7-7-7-|
D|-2-2-2-2-2-2-2-2-2-2-2-2-2-2-2-2-4-4-4-4-4-4-4-4-7-7-7-7-7-7-7-7-|
A|-0-0-0-0-0-0-0-0-2-2-2-2-2-2-2-2-4-4-4-4-4-4-4-4-5-5-5-5-5-5-5-5-|
E|-----------------0-0-0-0-0-0-0-0-2-2-2-2-2-2-2-2-5-5-5-5-5-5-5-5-|

e|-----------------------------------------------------------------|
B|-----------------------------------------------------------------|
G|-2-2-2-2-2-2-2-2---------------------------------7-7-7-7-7-7-7-7-|
D|-2-2-2-2-2-2-2-2-2-2-2-2-2-2-2-2-4-4-4-4-4-4-4-4-7-7-7-7-7-7-7-7-|
A|-0-0-0-0-0-0-0-0-2-2-2-2-2-2-2-2-4-4-4-4-4-4-4-4-5-5-5-5-5-5-5-5-|
E|-----------------0-0-0-0-0-0-0-0-2-2-2-2-2-2-2-2-5-5-5-5-5-5-5-5-|

[Chorus]
e|---------------------------------------------------------------------------------------------------|
B|---------------------------------------------------------------------------------------------------|
G|-6-6-6-6-6-6-6-6-6-----------6-6-6-7-7-7-7-7-7-7-7-----------------2-2-2-2-2-2-2-2-----------------|
D|-6-6-6-6-6-6-6-6-6-4-4-4-4-4-------7-7-7-7-7-7-7-7-2-2-2-2-2-2-2-2-2-2-2-2-2-2-2-2-2-2-2-2-2-2-2-2-|
A|-4-4-4-4-4-4-4-4-4-4-4-4-4-4-4-4-4-5-5-5-5-5-5-5-5-2-2-2-2-2-2-2-2-0-0-0-0-0-0-0-0-2-2-2-2-2-2-2-2-|
E|-4-4-4-4-4-4-4-4-4-2-2-2-2-2-----------------------0-0-0-0-0-0-0-0-----------------0-0-0-0-0-0-0-0-|

[Chorus (Continued)]
e|---------------------------------|
B|---------------------------------|
G|-7-7-7-7-7-7-7-7-7-7-7-6-6-6-4-4-|
D|-7-7-7-7-7-7-7-7-----------------|
A|-5-5-5-5-5-5-5-5-5-5-5-4-4-4-2-2-|
E|-5-5-5-5-5-5-5-5-----------------|

[Bridge]
e|-----------------------------------------------------------------|
B|-7-7-7-7-7-7-7-7-7-7-7-7-7-7-9-6-6-6-6-6-6-6-6-6-6/9-9-9-10 -12 -|
G|-6-6-6-6-6-6-6-6-6-6-6-6-6-6-7-4-4-4-4-4-4-4-4-4-4---------------|
D|-4-4-4-4-4-4-4-4-4-4-4-4-4-4-5-2-2-2-2-2-2-2-2-2-2/6-6-6-7-7-9-9-|
A|-----------------------------------------------------------------|
E|-----------------------------------------------------------------|

[Solo]
e|---------------------------------------------------------9-9-9-9-9-|
B|-9-9-9-9-9-9-9-9-9-9-9-8-8-8-6-8---9-9-9-9-9-9-9-9-9-9-9-----------|
G|---------------------------------------------------------7-7-7-7-7-|
D|-7-7-7-7-7-7-7-7-7-7-7-6-6-6-4-6---7-7-7-7-7-7-7-7-7-7-7-----------|
A|-------------------------------------------------------------------|
E|-------------------------------------------------------------------|

e|---------------------------------------------------------9-9-9-9-9-|
B|-9-9-9-9-9-9-9-9-9-9-9-8-8-8-6-8---9-9-9-9-9-9-9-9-9-9-9-----------|
G|---------------------------------------------------------7-7-7-7-7-|
D|-7-7-7-7-7-7-7-7-7-7-7-6-6-6-4-6---7-7-7-7-7-7-7-7-7-7-7-----------|
A|-------------------------------------------------------------------|
E|-------------------------------------------------------------------|

[Chorus]
e|---------------------------------------------------------------------------------------------------|
B|---------------------------------------------------------------------------------------------------|
G|-6-6-6-6-6-6-6-6-6-----------6-6-6-7-7-7-7-7-7-7-7-----------------2-2-2-2-2-2-2-2-----------------|
D|-6-6-6-6-6-6-6-6-6-4-4-4-4-4-------7-7-7-7-7-7-7-7-2-2-2-2-2-2-2-2-2-2-2-2-2-2-2-2-2-2-2-2-2-2-2-2-|
A|-4-4-4-4-4-4-4-4-4-4-4-4-4-4-4-4-4-5-5-5-5-5-5-5-5-2-2-2-2-2-2-2-2-0-0-0-0-0-0-0-0-2-2-2-2-2-2-2-2-|
E|-4-4-4-4-4-4-4-4-4-2-2-2-2-2-----------------------0-0-0-0-0-0-0-0-----------------0-0-0-0-0-0-0-0-|

[Chorus (Continued)]
e|---------------------------------|
B|---------------------------------|
G|-7-7-7-7-7-7-7-7-7-7-7-6-6-6-4-4-|
D|-7-7-7-7-7-7-7-7-----------------|
A|-5-5-5-5-5-5-5-5-5-5-5-4-4-4-2-2-|
E|-5-5-5-5-5-5-5-5-----------------|

[Verse]
e|-----------------------------------------------------------------|
B|-----------------------------------------------------------------|
G|-2-2-2-2-2-2-2-2---------------------------------7-7-7-7-7-7-7-7-|
D|-2-2-2-2-2-2-2-2-2-2-2-2-2-2-2-2-4-4-4-4-4-4-4-4-7-7-7-7-7-7-7-7-|
A|-0-0-0-0-0-0-0-0-2-2-2-2-2-2-2-2-4-4-4-4-4-4-4-4-5-5-5-5-5-5-5-5-|
E|-----------------0-0-0-0-0-0-0-0-2-2-2-2-2-2-2-2-5-5-5-5-5-5-5-5-|

e|-----------------------------------------------------------------|
B|-----------------------------------------------------------------|
G|-2-2-2-2-2-2-2-2---------------------------------7-7-7-7-7-7-7-7-|
D|-2-2-2-2-2-2-2-2-2-2-2-2-2-2-2-2-4-4-4-4-4-4-4-4-7-7-7-7-7-7-7-7-|
A|-0-0-0-0-0-0-0-0-2-2-2-2-2-2-2-2-4-4-4-4-4-4-4-4-5-5-5-5-5-5-5-5-|
E|-----------------0-0-0-0-0-0-0-0-2-2-2-2-2-2-2-2-5-5-5-5-5-5-5-5-|

e|-----------------------------------------------------------------|
B|-----------------------------------------------------------------|
G|-2-2-2-2-2-2-2-2---------------------------------7-7-7-7-7-7-7-7-|
D|-2-2-2-2-2-2-2-2-2-2-2-2-2-2-2-2-4-4-4-4-4-4-4-4-7-7-7-7-7-7-7-7-|
A|-0-0-0-0-0-0-0-0-2-2-2-2-2-2-2-2-4-4-4-4-4-4-4-4-5-5-5-5-5-5-5-5-|
E|-----------------0-0-0-0-0-0-0-0-2-2-2-2-2-2-2-2-5-5-5-5-5-5-5-5-|

e|-----------------------------------------------------------------|
B|-----------------------------------------------------------------|
G|-2-2-2-2-2-2-2-2---------------------------------7-7-7-7-7-7-7-7-|
D|-2-2-2-2-2-2-2-2-2-2-2-2-2-2-2-2-4-4-4-4-4-4-4-4-7-7-7-7-7-7-7-7-|
A|-0-0-0-0-0-0-0-0-2-2-2-2-2-2-2-2-4-4-4-4-4-4-4-4-5-5-5-5-5-5-5-5-|
E|-----------------0-0-0-0-0-0-0-0-2-2-2-2-2-2-2-2-5-5-5-5-5-5-5-5-|

Finish on an A5:
e|---|
B|---|
G|-2-|
D|-2-|
A|-0-|
E|---|
Suggest correction
Give kudos to tab author, rate the tab!
1 2 3 4 5
comments
print report bad tab
guest
You may want to rate the tab now too:
select rating
Wanna post a correction for this tab? Suggest correction