Oops, an error
Loading. Please wait.

Summer Elaine And Drunk Dori solo tab

by Weezer
592 views 3 this week
1 commentread comment
1 2 3 4 5
x 4
add to favorites
×
Save as Personal and add changes to this tab that will be seen only by you. Learn more ›
×
You can save this tab as Personal to edit and correct it or add notes. All changes will be seen only by you. Learn more »
launch autoscroll
font size
0
reset
how to read this tab
guitar tuner
edit
Autoscroll
slow
fast
+/-
esc
set tempo
stop
About this tab version
Includes lead guitar tab for the solo. Was this info helpful? Yes No
Song: Summer Elaine and Drunk Dori
Artist: Weezer
Album: Weezer (White Album) (2016)
Track: 7

Solo starts at 2:33. Please comment any corrections or email them to me, Danny Renkas, at 
agent.dgr.dabest@gmail.com

e|----------------------------------------------9-7------7-7b9-9pb-9pb-9pb-9pb-7h9p7----7------------5-|
B|--------------10-8---------------------------10-8---10-----------------------------10-------10-------|
G|-/9-9-9-7-6--------9-7h9p7\6-7-9-9-9-7-6----------9-------------------------------------9-9----7-6---|
D|------------7----------------------------7-7---------------------------------------------------------|
A|-----------------------------------------------------------------------------------------------------|
E|-----------------------------------------------------------------------------------------------------|

e|--(20-20-20*-17**)-----------------------------------------------------------|
B|------------------10-10-10-12-13-12-10-8-10-10-10-10-12-13-15-15-13-15-17-17-|
G|-5-5--5--5-------------------------------------------------------------------|
D|-------------7----7--7--7--9--10-9--7--5-7--7--7--7--9--10-12-12-10-12-14-14-|
A|-----------------------------------------------------------------------------|
E|-----------------------------------------------------------------------------|

*  The third time the B note on the 20th fret is played, it is bent up a quarter step.
** The line of notes in parentheses on the high E string is played on a separate guitar.



************************************

| h   Hammer-on
| p   Pull-off
| b   Bend
| pb  Pre-bend
| /   Slide up
| \   Slide down

************************************
Suggest correction
Creating personal tab
Creating personal tab
You can edit any tab online and save it as your Personal.

You can edit, replace or remove any tab part or add personal notes – all changes will be seen only by you.

Personal tabs can be accessed anytime from any device, even offline.
Learn more »
comments
print report bad tab
1 comment total.
0 reply
stratomaiden 130 Oct 11, 2016 02:34 AM

excellent tab!

guest
You may want to rate the tab now too:
select rating
Wanna post a correction for this tab? Suggest correction