Oops, an error
Loading. Please wait.

The British Are Coming Tab

version 1
version 1

Solo

  • There wasn't a tab for the solo on this site. Othe... Show more
28 views 12 this week
no commentswrite comment
1 2 3 4 5
2 more votes to show rating
add to favorites
launch autoscroll
font size
0
reset
how to read this tab
guitar tuner
Autoscroll
slow
fast
+/-
esc
set tempo
stop
Help us to improve Ultimate-Guitar.com Take our survey!
×
Author
Difficulty
Tuning
intermediate
D# G# C# F# A# D#
About this tab version
There wasn't a tab for the solo on this site. Others on different websites didn't sound right so hopefully this one sounds better. Was this info helpful? Yes No
The British Are Coming - Weezer
Tabbed By: thegoodguy277
Email: thegoodguy277@gmail.com


[Solo]

d#|---------------------------------------------------------------|
A#|-17(b)19-17(b)19(r)17p15-17---15-17-15-17-17(b)19-15-----------|
F#|---------------------------------------------------------------|
C#|---------------------------------------------------------------|
G#|---------------------------------------------------------------|
D#|---------------------------------------------------------------|

d#|---------------------------------------------------------------|
A#|----17(b)19-17(b)19(r)17p15-17---15-17-15-17-17(b)19-15--------|
F#|-14------------------------------------------------------------|
C#|---------------------------------------------------------------|
G#|---------------------------------------------------------------|
D#|---------------------------------------------------------------|

d#|---------------------------------------------------------------|
A#|----17(b)19-17(b)19(r)17p15-17--15-14--------------------------|
F#|-14------------------------------------------------------------|
C#|---------------------------------------------------------------|
G#|---------------------------------------------------------------|
D#|---------------------------------------------------------------|

d#|---------------------------------------------------------------|
A#|--15-14h15p14/12-------12--------------------------------------|
F#|--------------------14----14h16p14-12-11-----------------------|
C#|---------------------------------------------------------------|
G#|---------------------------------------------------------------|
D#|---------------------------------------------------------------|

d#|---------------------------------------------------------------|
A#|-15----------------------14------------------------------------|
F#|-------12--11-----------------14---12--11----11-11-------------|
C#|----------------14---------------------------------------------|
G#|---------------------------------------------------------------|
D#|---------------------------------------------------------------|

d#|-----------------------------------17--------------------------|
A#|-15---14-15--17----15--17--17(b)19----19(r)17--15--------------|
F#|---------------------------------------------------------------|
C#|---------------------------------------------------------------|
G#|---------------------------------------------------------------|
D#|---------------------------------------------------------------|

d#|------------------------------------------22-------------------|
A#|-15--17--19(b)20-19--17---22(b)24--20-19-----------------------|
F#|---------------------------------------------------------------|
C#|---------------------------------------------------------------|
G#|---------------------------------------------------------------|
D#|---------------------------------------------------------------|

d#|---------------------------------------------------------------|
A#|--21h22p21/19--21p19--17h19p17/15------------------------------|
F#|---------------------------------------------------------------|
C#|---------------------------------------------------------------|
G#|---------------------------------------------------------------|
D#|---------------------------------------------------------------|

d#|---------------------------------------------------------------|
A#|--14h15p14/12--14p12--10h12p10/9-------------------------------|
F#|---------------------------------------------------------------|
C#|---------------------------------------------------------------|
G#|---------------------------------------------------------------|
D#|---------------------------------------------------------------|

d#|---------------------------------------------------------------|
A#|--7h9p7/5--7p5--3h5p3/2--3p2-----------------------------------|
F#|------------------------------5h7p5/3-5p3--5p3-----------------|
C#|---------------------------------------------------------------|
G#|---------------------------------------------------------------|
D#|---------------------------------------------------------------|


************************************

| p  Pull-off
| h  Hammer-on
| /  Slide up

************************************
Suggest correction
Give kudos to tab author, rate the tab!
1 2 3 4 5
comments
print report bad tab
guest
You may want to rate the tab now too:
select rating
Wanna post a correction for this tab? Suggest correction