Oops, an error
Loading. Please wait.

The Greatest Man That Ever Lived Tab

version 1
version 1

Whole song

Interactive

20,734 views 39 this week
3 commentsread comments
1 2 3 4 5
excellent!
x 7
add to favorites
launch autoscroll
font size
0
reset
how to read this tab
guitar tuner
Tab Pro tools
  • play this tab
  • loop segment
  • change instrument
  • show fretboard
  • metronome
×
Best way to learn
"The Greatest Man That Ever Lived"
Autoscroll
slow
fast
+/-
esc
set tempo
stop
Contributor
Tuning
D# G# C# F# A# D#
-------------------------------------------------------------------------------
The Greatest Man That Ever Lived (Variations on a Shaker Hymn) - Weezer
-------------------------------------------------------------------------------
Tabbed by: Theavsfan

Tuning: Tuned a Half-Step Down (Eb Tuning)

Intro.

No Guitar 0:00 to 1:00
e|---------------------------------------------------------------------------|
B|---------------------------------------------------------------------------|
G|---------------------------------------------------------------------------|
D|---------------------------------------------------------------------------|
A|---------------------------------------------------------------------------|
E|---------------------------------------------------------------------------|

1:00 to 1:26
e|------------------------------------------------|
B|------------------------------------------------|
G|-----------777----------------444-------777-777-| 
D|-777--666--555--777-777--222--222--222--777-777-| (x2)
A|-777--777--555--555-555--222--222--222--555-555-|
E|-555--444-------555-555--000-------000----------|

1:26 to 1:50
e|-0-----0-----2-----0-----2-----0-|
B|-2-----2-----3-----0-----3-----0-|
G|-2-----1-----2-----1-----4-----0-| 
D|-2-----2-----0-----2-----4-----2-| (x2)
A|-0-----x-----x-----2-----2-----2-|
E|-0-----x-----x-----0-----0-----0-|

No Guitar 1:50 to 2:28
e|---------------------------------------------------------------------------|
B|---------------------------------------------------------------------------|
G|---------------------------------------------------------------------------|
D|---------------------------------------------------------------------------|
A|---------------------------------------------------------------------------|
E|---------------------------------------------------------------------------|

2:28 to 2:30 and 2:41 to 2:43 (Distorted)
e|---------------------|
B|---------------------|
G|---------------------|
D|--------7-9b11b9-7---|
A|-7-9-10------------9-|
E|---------------------|

2:43 to 3:08
e|---------------------------------------------------------------------------|
B|---------------------------------------------------------------------------|
G|----------66666666-77777777--------------------66666666-77777777-----------|
D|-77777777-66666666-77777777-77777777--22222222-44444444-77777777-77777777--| (x2)
A|-77777777-44444444-55555555-77777777--22222222-44444444-55555555-77777777--|
E|-55555555-------------------55555555--00000000-------------------55555555--|

3:08 to 3:33 (Strange Strumming Pattern)
e|--------------------------------------------------------|
B|--------------------------------------------------------|
G|---------------7-7-7--7-7-7-----------------------------|
D|-7-7-7--7-7-7--7-7-7--7-7-7--2-2-2--7-7-7--6-6-6--4-4-4-|
A|-7-7-7--7-7-7--5-5-5--5-5-5--2-2-2--7-7-7--6-6-6--4-4-4-|
E|-5-5-5--5-5-5---------5-5-5--0-0-0--5-5-5--4-4-4--2-2-2-|

e|--------------------------------------------------------|
B|--------------------------------------------------------|
G|-4-4-4--4-4-4----------------4-4-4--4-4-4---------------|
D|-2-2-2--4-4-4--2-2-2--2-2-2--4-4-4--4-4-4--2-2-2--2-2-2-|
A|-2-2-2--2-2-2--2-2-2--2-2-2--2-2-2--2-2-2--2-2-2--2-2-2-|
E|---------------0-0-0--0-0-0----------------0-0-0--0-0-0-|

3:33 to 4:06 (Slower This Time)
e|---------------------------------------------------------------------------|
B|---------------------------------------------------------------------------|
G|----------66666666-77777777--------------------66666666-77777777-----------|
D|-77777777-66666666-77777777-77777777--22222222-44444444-77777777-77777777--| (x2)
A|-77777777-44444444-55555555-77777777--22222222-44444444-55555555-77777777--|
E|-55555555-------------------55555555--00000000-------------------55555555--|

At About 4:55 (Distorted. Very Soft)
e|---------------------------------------------------------------------------|
B|---------------------------------------------------------------------------|
G|---------------------------------------------------------------------------| 
D|-7-7-7-7-7-----------------------------------------------------------------| (x4)
A|-7-7-7-7-7-----------------------------------------------------------------|
E|-5-5-5-5-5-----------------------------------------------------------------|
P.M. . . . 

5:10 to 5:54
e|-------------------------------------------------------------|
B|-------------------------------------------------------------|
G|------6666-7777----------------6666-7777------6666-7777------|
D|-7777-6666-7777-7777-2222-2222-6666-7777-7777-4444-5555-7777-|
A|-5777-4444-5555-7777-2222-2222-4444-5555-7777-4444-5555-7777-|
E|-5555-----------5555-0000-0000-----------5555-----------5555-|

e|-------------------------------------------------------------|
B|-------------------------------------------------------------|
G|-9999-6666-9999-6666-9999-6666-9999-6666-------6---6-9-7-----|
D|-9999-6666-9999-6666-9999-6666-9999-6666-7-7-9-6-7-6-9-7-7-7-|
A|-7777-4444-7777-4444-7777-4444-7777-4444-7-7-9-4-7-4-7-5-7-7-|
E|-----------------------------------------5-5-7---5-------5-5-|

e|---------------------------------------------------|
B|---------------------------------------------------|
G|-------------77777777---77777777---77777777--------|
D|-2-2-2-6-6-6-77777777-7-77777777-7-77777777-7-7-7--|
A|-2-2-2-6-6-6-55555555-7-55555555-7-55555555-7-7-7--|
E|-0-0-0-4-4-4----------5----------5----------5-5-5--|


| /  slide up
| \  slide down
| h  hammer-on
| p  pull-off
| ~  vibrato
| +  harmonic
| x  Mute note
===============================================================================
comments
print report bad tab
3 comments total.
+2 reply
hi mom wrote on June 21 2008, 12:08 pm

the tuning is 1/2 step down (key of Eb), I believe.

+1 reply
fatfree0 wrote on June 25 2008, 04:09 am

Very good tab ! 'hi mom' is correct, it sounded off in standard tuning, but in Eb, it sounded perfect. My only problem with the tab was the format of the last part [the last 3 lines]. I got a bit confused following it with the music. Otherwise, brilliant !!

+1 reply
HeathenChemist wrote on September 7 2009, 10:02 pm

^^^^ To those guys: It says up the top it's for Eb tuning!!!

And good tab by the way!!

I want to post or [tab]
guest
You may want to rate the tab now too:
select rating
Please do not post tabs as comments. Select "correction" instead!