Oops, an error
Loading. Please wait.

The World Has Turned And Left Me Here tab

version 1
version 1

Whole song

Interactive

by Weezer
114,793 views 189 this week
2 commentsread comments
1 2 3 4 5
x 37
add to favorites
×
Save as Personal and add changes to this tab that will be seen only by you. Learn more ›
×
You can save this tab as Personal to edit and correct it or add notes. All changes will be seen only by you. Learn more »
launch autoscroll
font size
0
reset
how to read this tab
guitar tuner
edit
Autoscroll
slow
fast
+/-
esc
set tempo
stop
Author
Difficulty
intermediate
The World Has Turned and Left Me Here
as performed by Weezer
Words and Music by Rivers Cuomo and Patrick Wilson

4/4 Time
All strings tuned a half-step down [Eb Ab Db Gb Bb eb]
(All chords relative to standard tuning)


[Intro]

     G5       D/A              B5/F#    C/G
e|-------------------------|-------------------------|
B|-------------------------|-------------------------|
G|-------------------------|-------------------------|
D|-5--5--5--4--4--4--4--4--|-4--4--4--2--2--2--2--2--|
A|-5--5--5--5--5--5--5--5--|-2--2--2--3--3--3--3--3--| {distorted}
E|-3--3--3--5--5--5--5--5--|-2--2--2--3--3--3--3--3--|

e|-------------------------|-------------------------|
B|------0---------------0--|------0---------------0--|
G|----0---0------0--------0|----0---0------0--------0|
D|-------------4---4-------|-------------2---2-------|
A|----------5--------5-----|-2--------3-------3------| {clean}
E|-3-----------------------|-------------------------|
                                        (Play 4 times)


[Chorus]

G5  D/A             B5/F# C/G
The world has turned and left me here,
G5   D/A        B5/F# C/G
just where I was before you appeared.
G5  D/A          B5/F# C/G
And in your place an empty space
G5  D/A            B5/F# C/G
has filled the void behind my face.


[Verse 1]

  (Em7)                     (Cmaj7)
e|-------------------------|-------------------------|
B|-------------------------|----------0--------------|
G|----------7-----------7--|-------0--------0--------|
D|-------5--------5--------|----2--------------2-----|
A|----7--------------7-----|-3-----------------------|
E|-0-----------------------|-------------------------|
        I  just  made  love       to your  sweet  mem

  (Asus2)                   (Cmaj7)
e|-------------------------|-------------------------|
B|----------0--------------|----------0--------------|
G|-------2--------2--------|-------0--------0--------|
D|----2--------------2-----|----2--------------2-----|
A|-0-----------------------|-3--------------------3--|
E|-------------------------|-------------------------|
    -      ory       one thousand times in my head.

Em7             Cmaj7           Asus2 Cmaj7
You said you loved it more than ever, you said.


[Pre-Chorus]

   B5                        C5
e|-------------------------|-------------------------|
B|-------------------------|-------------------------|
G|-------------------------|-------------------------|
D|-4--4--4--4--4--4--4--4--|-5--5--5--5--5--5--5--5--|
A|-2--2--2--2--2--2--2--2--|-3--3--3--3--3--3--3--3--|
E|-------------------------|-------------------------|
  You      remain           turned   away,

   B5                        C5          D5
e|-------------------------|-------------------------|
B|-------------------------|-------------------------|
G|-------------------------|-------------------------|
D|-4--4--4--4--4--4--4--4--|-5--5--5--5--7--7--7--7--|
A|-2--2--2--2--2--2--2--2--|-3--3--3--3--5--5--5--5--|
E|-------------------------|-------------------------|
  turn  - ing fur   -  ther ev   -   'ry day.


[Chorus]

G5  D/A             B5/F# C/G
The world has turned and left me here,
G5   D/A        B5/F# C/G
just where I was before you appeared.
G5  D/A          B5/F# C/G
And in your place an empty space
G5  D/A            B5/F# C/G
has filled the void behind my face.


[Verse 2]

Em7               Cmaj7           Asus2     Cmaj7
I talked for hours to your wallet photograph and you just listened.
Em7                Cmaj7      Asus2       Cmaj7
You laughed enchanted by my intellect, or maybe you didn't.


[Pre-Chorus]

B5         C5           B5              C5    D5
You remain turned away, turning further ev'ry day.


[Chorus]

G5  D/A             B5/F# C/G
The world has turned and left me here,
G5   D/A        B5/F# C/G
just where I was before you appeared.
G5  D/A          B5/F# C/G
And in your place an empty space
G5  D/A            B5/F# C/G
has filled the void behind my face.


[Solo]

   G5                        G/B
e|-------------------------|-------------------------|
B|-------------------------|-------------------------|
G|-0----------------0^-----|/4--------4-----4--4--4--|
D|-------------------------|-------------------------|
A|-------------------------|-------------------------|
E|-------------------------|-------------------------|

   C5                        A5
e|---0---0---0---0---------------|-------------------------|
B|-3---3---3---3---3--1--0h1--0--|-(0)---------------------|
G|-------------------------------|-------------------------|
D|-------------------------------|-------------------------|
A|-------------------------------|-------------------------|
E|-------------------------------|-------------------------|

   G5                        G/B
e|-------------------------|-------------------------|
B|------10-8--7~~~~~~~~~7--|----10-8--7----------(7)/|
G|-------------------------|-------------------------|
D|-------------------------|-9-----------------------|
A|-------------------------|-------------------------|
E|-------------------------|-------------------------|

   C5                              A5
e|--------------------------------|---------------------------------------|
B|15-15-15p12-15p12-15b12---------|------------12-----------12------------|
G|------------------------14b12---|---------12----14----14b----12---------|
D|------------------------------14|14-14-14----------14-----------14-14-14|
A|--------------------------------|---------------------------------------|
E|--------------------------------|---------------------------------------|


[Pre-Chorus]

   B5                        C5
e|-------------------------|-------------------------|
B|-------------------------|-------------------------|
G|-8--8--8--8--8--9--11-12-|-14-14-14-14-12-12-12-12-|
D|-------------------------|-------------------------|
A|-6--6--6--6--6--7--9--10-|-12-12-12-12-10-10-10-10-|
E|-------------------------|-------------------------|
  You      remain           turned   away,

   B5                        C5           D5
e|-------------------------|-------------------------|
B|-------------------------|/12-12-12-12-10b-8h10-7--|
G|-8--8--8--8--8--9--11-12-|-------------------------|
D|-------------------------|/9--9--9--9--------------|
A|-6--6--6--6--6--7--9--10-|-------------------------|
E|-------------------------|-------------------------|
  turn  -  ing fur  -  ther ev   -   'ry day.


[Chorus]

G5  D/A             B5/F# C/G
The world has turned and left me here,
G5   D/A        B5/F# C/G
just where I was before you appeared.
G5  D/A          B5/F# C/G
And in your place an empty space
G5  D/A            B5/F# C/G
has filled the void behind my face.

[Chorus]

G5  D/A             B5/F# C/G
The world has turned and left me here,
(Do you believe what I sing now?)
G5   D/A        B5/F# C/G
just where I was before you appeared.
(Do you believe what I sing?)
G5  D/A          B5/F# C/G
And in your place an empty space
(Do you believe?)
G5  D/A            B5/F# C/G
has filled the void behind my face.
(Be-lieve?)

G5       D/A          B5/F# C/G
Do you believe what I sing now?
G5       D/A          B5/F# C/G
Do you believe what I sing now?
G5       D/A   B5/F# C/G
Do you believe?
G5 D/A B5/F# C/G


[Outro]

     G5       D/A              B5/F#    C/G
e|-------------------------|-------------------------|
B|-------------------------|-7--7--7-----------------|
G|-12-12-12-11-11-11-9--7--|----------9--9\7-5--5--5-|
D|-------------------------|-4--4--4-----------------|
A|-10-10-10-9--9--9--7--5--|----------7--7\5-3--3--3-|
E|-------------------------|-------------------------|(Play 2 times)

   G5       D/A               B5/F#    C/G
e|--------------------------|-------------------------|
B|--------------------------|-------------------------|
G|-12-12-12-14-14-14-14-14--|-14-14-14bbbbbbbbbbbbbbb-|
D|--------------------------|-------------------------|
A|-10-10-10-12-12-12-12-12--|-12-12-12bbbbbbbbbbbbbbb-|
E|--------------------------|-------------------------|

   G        D/A              B5/F#    C5/G
e|-------------------------|-------------------------|
B|------0---------------0--|------0---------------0--|
G|----0---0------0--------0|----0---0------0--------0|
D|-------------4---4-------|-------------2---2-------|
A|----------5--------5-----|-2--------3-------3------| {clean}
E|-3-----------------------|-------------------------|
 
e|-------------------------|-------------------------|
B|-------------------------|-------------------------|
G|-12-12-12-12-12-12-12-12-|-12-12-12-12-12-12-12-12-|
D|-------------------------|-------------------------|
A|-10-10-10-10-10-10-10-10-|-10-10-10-10-10-10-10-10-| {distorted}
E|-------------------------|-------------------------|

  (Gmaj7)
e|-------------------------|-------------------------|
B|------0---------------0--|------0---------------0--|
G|----0---0------0--------0|----0---0------0--------0|
D|-------------4---4-------|-------------2---2-------|
A|----------5--------5-----|-2--------3-------3------|
E|-3-----------------------|-------------------------|
 
e|-------------------------|-------------------------|
B|-------------------------|-------------------------|
G|-11----------------------|-(11)--------------------|
D|-------------------------|-------------------------|
A|-9-----------------------|-(9)---------------------|
E|-------------------------|-------------------------|

  (Gmaj7)
e|-------------------------|-------------------------|-------------------------|
B|------0---------------0--|------0-----------0------|-------------------------|
G|----0---0------0--------0|----0---0-------0---0----|-------------------------|
D|------------4----4-------|------------0h2------2p0-|-------------------------|
A|----------5---------5----|-2--------3--------------|-------------------------|
E|-3-----------------------|-------------------------|-3-----------------------|

************************************

| (n)  Ghost note
| h    Hammer-on
| p    Pull-off
| b    Bend
| /    Slide up
| \    Slide down
| ~    Vibrato

************************************
Suggest correction
Creating personal tab
Creating personal tab
You can edit any tab online and save it as your Personal.

You can edit, replace or remove any tab part or add personal notes – all changes will be seen only by you.

Personal tabs can be accessed anytime from any device, even offline.
Learn more »
comments
print report bad tab
2 comments total.
+2 reply
Elmis 52 Dec 18, 2007 01:36 AM

That part in the solo should go:
B-12-10-8-7

not:
B-10--8-7

Otherwise, perfect.

+1 reply
chris2phar 10 Jul 12, 2013 04:40 AM

Also the part played
|-------------------------|
|-------------------------|
|----------7-----------7--|
|-------5--------5--------|
|----7--------------7-----|
|-0-----------------------|

Can be played
|-------------------------|
|-----------3-------------|
|--------0-------0-----0--|
|-----2-------------2-----|
|-------------------------|
|-0-----------------------|

It's a little smoother. Thanks - Great tab

guest
You may want to rate the tab now too:
select rating
Wanna post a correction for this tab? Suggest correction