Oops, an error
Loading. Please wait.

Thief Youve Taken All That Was Me solo tab

version 1
version 1

Solo

Whole song

by Weezer
118 views 1 this week
1 commentread comment
1 2 3 4 5
2 more votes to show rating
add to favorites
×
Save as Personal and add changes to this tab that will be seen only by you. Learn more ›
×
You can save this tab as Personal to edit and correct it or add notes. All changes will be seen only by you. Learn more »
launch autoscroll
font size
0
reset
how to read this tab
guitar tuner
edit
Autoscroll
slow
fast
+/-
esc
set tempo
stop
Author
Difficulty
-------------------------------------------------------------------------------
THIEF, YOU'VE TAKEN ALL THAT WAS ME - Weezer
-------------------------------------------------------------------------------

dedicated to anon

Tuning: 1/2 step down

eb|---------------------------------------------------------------------------|
Bb|--15-15-15-15-15-15-15-15-15----------------15-17--15h17p15----------------|
Gb|-----------------------------17-16----16-17------------------17-16-17------|
Db|---------------------------------------------------------------------------|
Ab|---------------------------------------------------------------------------|
Eb|---------------------------------------------------------------------------|

eb|---------------------------------------------------------------------------|
Bb|---------------------------------------------------------------------------|
Gb|---16h17p16----14----------------------------------------------------------|
Db|------------17----17-16-17-17----------------------------------------12----|
Ab|--------------------------------14-14--12-12-10-12-10----10---12h14-----14-|
Eb|------------------------------------------------------12-------------------|

eb|---------------------------------------------------------------------------|
Bb|------------------------------------------15---------------------------15--|
Gb|------------------12-------14b16--14pb16-----14pb16r---14b16--14pb16-------|
Db|--12-14--12h14p12----14-12-------------------------------------------------|
Ab|---------------------------------------------------------------------------|
Eb|---------------------------------------------------------------------------|

eb|---------------------------------------------------------------------------|
Bb|------------------15---------------15--------------------------------------|
Gb|---14b16--14pb16-----14b16--14pb16------14b16----14pb16~ ---14pb16r---12---|
Db|---------------------------------------------------------------------------|
Ab|---------------------------------------------------------------------------|
Eb|---------------------------------------------------------------------------|

eb|---------------------------------------------------------------------------|
Bb|----15--12h16p12----12-----------------------------------------------------|
Gb|-----------------14----14--12---14pb16r--12--14p12-----12------------------|
Db|---------------------------------------------------14-------14p12----------|
Ab|---------------------------------------------------------------------------|
Eb|---------------------------------------------------------------------------|

eb|------------------------15-----------------15-------------------------|
Bb|------------15----15b17----15pb16r---15b17----17p15h17p15----15-------|
Gb|------14/16---16------------------------------------------16----------|
Db|----------------------------------------------------------------------|
Ab|----------------------------------------------------------------------|
Eb|----------------------------------------------------------------------|

eb|----15~----14~----22~----19---17h19p17----17-------------------------------|
Bb|---------------------------------------20----20-------19~--17--------------|
Gb|--------------------------------------------------------------19-----------|
Db|-------------------------------------------------17------------------------|
Ab|---------------------------------------------------------------------------|
Eb|---------------------------------------------------------------------------|

eb|---------------------------------------------------------------------------|
Bb|---------------------------------------------------------------------------|
Gb|---16---19---16h19p16---15--14---------------------------------------------|
Db|--------------------------------17---14---17-------------------------------|
Ab|---------------------------------------------------------------------------|
Eb|---------------------------------------------------------------------------|


************************************

| /   slide up
| \   slide down
| h   hammer-on
| p   pull-off
| ~   vibrato
| +   harmonic
| x   Mute note
| b   Bend
| pb  Pre-bend
| br  Bend release
| pbr Pre-bend release
| brb Bend release bend

************************************
Suggest correction
Creating personal tab
Creating personal tab
You can edit any tab online and save it as your Personal.

You can edit, replace or remove any tab part or add personal notes – all changes will be seen only by you.

Personal tabs can be accessed anytime from any device, even offline.
Learn more »
Give kudos to tab author, rate the tab!
1 2 3 4 5
comments
print report bad tab
1 comment total.
0 reply
Hexadecimated 10 Feb 27, 2016 07:03 AM

THANK YOU BASED GOD
t. Anon

guest
You may want to rate the tab now too:
select rating
Wanna post a correction for this tab? Suggest correction