Oops, an error
Loading. Please wait.

Tired Of Sex Bass

version 2
version 2

Whole song

Interactive

by Weezer
12,626 views 3 this week
no commentswrite comment
1 2 3 4 5
x 5
add to favorites
×
Save as Personal and add changes to this tab that will be seen only by you. Learn more ›
×
You can save this tab as Personal to edit and correct it or add notes. All changes will be seen only by you. Learn more »
save as personal
new!
launch autoscroll
font size
0
reset
guitar tuner
Autoscroll
slow
fast
+/-
esc
set tempo
stop
Author
Half step Down									

[F#]
[C#]			Tired of Sex - Weezer
[G#]				Bass Tab
[D#]




F#------------------------------|\
C#-------0-0-020----------------| \
G#----------------3-22----------| / 10 Times 
D#---3-3------------------------|/
                                
F#------------------------------|\
C#------------------------------| \
G#-------3333-5555--------------| / 3 Times
D#---3333----------0000---------|/
              
F#------------------------------|
C#------------------------------|
G#--------3--2--0---------------|
D#----0-------------------------|       

F#------------------------------|\
C#-------0-0-020----------------| \
G#----------------3-22----------| / 10 Times 
D#---3-3------------------------|/
                                
F#------------------------------|\
C#------------------------------| \
G#-------3333-5555--------------| / 3 Times
D#---3333----------0000---------|/

F#------------------------------|
C#------------------------------|
G#------3333-2222--000000000000-|
D#-0000-------------------------|   

SOLO

F#------------------------------|\
C#-------0-0-020----------------| \
G#----------------3-22----------| / 4 Times 
D#---3-3------------------------|/

F#------------------------------|\
C#------------------------------| \
G#-------3333-5555--------------| / 3 Times
D#---3333----------0000---------|/

END

F#------------------------------|
C#------------------------------|
G#------3-2---------------------|
D#-0000-----2--0--4-------------| 



Not too hard to play
Please rate and comment!
Suggest correction
comments
print report bad tab
guest
You may want to rate the tab now too:
select rating
Wanna post a correction for this tab? Suggest correction