Oops, an error
Loading. Please wait.

Undone The Sweater Song Tab

version 1
version 1

Whole song

Interactive

503,360 views 1,419 this week
14 commentsread comments
1 2 3 4 5
excellent!
x 106
add to favorites
launch autoscroll
font size
0
reset
how to read this tab
guitar tuner
Tab Pro tools
  • play this tab
  • loop segment
  • change instrument
  • show fretboard
  • metronome
Autoscroll
slow
fast
+/-
esc
set tempo
stop
Contributor
Undone- The Sweater Song
as Performed by Weezer
Words and Music by Rivers Cuomo

4/4 Time
All Strings Tuned Down One Half Step
(All Chords Relative to Standard Tuning)


Intro

      (G6add#9)   (Cmaj7[add#6])(D13)       (Cmaj7[add#6])
eb||:|-------------------------|-------------------------|:|
Bb||:|----------0-----------0--|----------0-----------0--|:|
F#||:|-------3-----------3-----|-------5-----------3-----|:|
C#||:|----2-----------2--------|----4-----------2--------|:|
Ab||:|-------------3-----------|-5-----------3-----------|:|
Eb||:|-3-----------------------|-------------------------|:|(Play 8 Times)


Verse

    G           C             D           C
eb|-3--3--3--3--0--0--0--0--|-2--2--2--2--0--0--0--0--|
Bb|-3--3--3--3--1--1--1--1--|-3--3--3--3--1--1--1--1--|
F#|-0--0--0--0--0--0--0--0--|-2--2--2--2--0--0--0--0--|
C#|-0--0--0--0--2--2--2--2--|-0--0--0--0--2--2--2--2--|
Ab|-2--2--2--2--3--3--3--3--|-------------3--3--3--3--|
Eb|-3--3--3--3--------------|-------------------------|
          I'm me,     me be,        God damn,   I  am.

G     C        D        C
I can sing and hear me, know me.


Chorus

    G           C5/G          D5/A        C5/G
eb|-------------------------|-------------------------|
Bb|-------------------------|-------------------------|
F#|-4--4--4--4--5--5--5--5--|-7--7--7--7--5--5--5--5--|
C#|-5--5--5--5--5--5--5--5--|-7--7--7--7--5--5--5--5--|
Ab|-5--5--5--5--3--3--3--3--|-5--5--5--5--3--3--3--3--|
Eb|-3--3--3--3--3--3--3--3--|-5--5--5--5--3--3--3--3--|
          If you want to destroy    my sweater,

G           C5/G      D5/A     C5/G
hold this thread as I walk away.

      (G6add#9)   (Cmaj7[add#6])(D13)       (Cmaj7[add#6])
eb||:|-------------------------|-------------------------|:|
Bb||:|----------0-----------0--|----------0-----------0--|:|
F#||:|-------3-----------3-----|-------5-----------3-----|:|
C#||:|----2-----------2--------|----4-----------2--------|:|
Ab||:|-------------3-----------|-5-----------3-----------|:|
Eb||:|-3-----------------------|-------------------------|:|(Play 4 Times)


Verse

G      C      D        C
Oh no, it go, it gone, bye bye.
G      C        D       C
Who I, I think, I sink, and I die.


Chorus

G      C5/G      D5/A            C5/G
If you want to destroy my sweater,
G           C5/G      D5/A     C5/G
hold this thread as I walk away.
G          C5/G        D5/A       C5/G
Watch me unravel, I'll soon be naked. Lyin' on the
G                   C5/G        D5/A        C5/G
floor. Lyin' on the floor, I've come undone.


Guitar Solo

    Bb              Eb/Bb              F/C              Eb/Bb
eb|----------------------------------|----------------------------------|
Bb|----------------------------------|-------------3-3b--r--------------|
F#|-3-3-3---3~~-3---3-3-3---3~~---3--|-3-3-3---3-5---------5-3\2h3------|
C#|-------6-------5-------5-----5----|-------5---------------------5-3--|
Ab|----------------------------------|----------------------------------|
Eb|----------------------------------|----------------------------------|
////////////////////////////////////////////////////////////////////////\
eb|----------------------------------|----------------------------------|
Bb|----------------------------------|----------------------------------|
F#|----------------------------------|----------------------------------|
C#|-----------------8-8-108-8---108--|-1010121010--12108-8-108-8---108--|
Ab|-8-8-108-8---108-6-6-6-6-6---6-6--|-8-8-8-8-8---8-8-6-6-6-6-6---6-6--|
Eb|-6-6-6-6-6---6-6------------------|----------------------------------|

    Bb              Eb/Bb              F/C              Eb/Bb
eb|----------------------------------|----------------------------------|
Bb|----------------------------------|---------------6b----r---3--------|
F#|------3-b-------5b-b-5---3--------|----5b---5---3---------------5-3~~|
C#|--3-5-------5-3--------------5-3--|----------------------------------|
Ab|----------------------------------|----------------------------------|
Eb|----------------------------------|----------------------------------|

    Bb              Eb/Bb              F/C              Eb/Bb
eb|-------------8-8/10101011111313/15|-15/1717/1818/2020201817151513----|
Bb|----------------------------------|----------------------------------|
F#|~~~~~3---3/5-5-5/7-7-7/8-8/1010/12|-12/1414/1515/1717171514121210-10-|
C#|----------------------------------|----------------------------------|
Ab|----------------------------------|----------------------------------|
Eb|----------------------------------|----------------------------------|

    Bb              Eb/Bb              F/C              Eb/Bb
eb|----------------------------------|--------15b~~~~15p13-18b~~~~~18-17|
Bb|-15----15-----15----15------------|-------x--------------------------|
F#|----12-----------12------121210~~~~~~~~~x----------------------------|
C#|----------12----------------------|----------------------------------|
Ab|----------------------------------|----------------------------------|
Eb|----------------------------------|----------------------------------|


Chorus

    G               C5/G               D5/A             C5/G
eb|----------------------------------|----------------------------------|
Bb|-15-----------~~~~~~~~~~~~~~~~~~~-|-------------13p12----------------|
F#|----------------------------------|----------------------14p12-14bbbb|
C#|----------------------------------|----------------------------------|
Ab|----------------------------------|----------------------------------|
Eb|----------------------------------|----------------------------------|
           If  you  want    to  de  -  stroy   my sweater, (Whoa, whoa, whoa.)

    G               C5/G
eb|----------------------------------|
Bb|----------------------------------|
F#|-12~~~~~~~~~~~~~~~~~~~~~~~~~~~~~~-|
C#|----------------------------------|
Ab|----------------------------------|
Eb|----------------------------------|
          hold  this thread  as  I

D5/A       C5/G
walk away. As I walk away.
G5         C5/G        D5/A         C5/G
Watch me unravel, I'll soon be naked. Lyin' on the
G                   C5/G        D5/A        C5/G
floor. Lyin' on the floor, I've come undone.

G      C5/G      D5/A            C5/G  Bb
If you want to destroy my sweater,
(I don't want to destroy your tanktop,)
G         C5/G        D5/A      C5/G  Bb       
Hold this thread as I walk away. As I walk away.
(Let's be friends as I walk away.)
G          C5/G        D5/A       C5/G Bb  
Watch me unravel, I'll soon be naked. Lyin' on the
(Hate to see you lyin' there in your superman skivies,)
G                   C5/G        D5/A        C5/G Bb
floor. Lyin' on the floor, I've come undone.


Outro

    G           C               D           C
eb|---------------------------|---------------------------|
Bb|---------------------------|---------------------------|
F#|-12-12-12-12-12-121212-1212|-11-11-9--9--9\7-----------|
C#|---------------------------|---------------------------|
Ab|-10-10-10-10-10-101010-1010|-9--9--7--7--7\5-----------|
Eb|---------------------------|---------------------------|

    G         C5/G              D5/A       C5/G
eb|---------------------------|---------------------------|
Bb|---------------------------|---------------------------|
F#|-7-7-7/12121212121212121212|-11-11-9--9-9\7-7-7-7-7-7-7|
C#|---------------------------|---------------------------|
Ab|-5-5-5/10101010101010101010|-9--9--7--7-7\5-5-5-5-5-5-5|
Eb|---------------------------|---------------------------|

    G             C5/G          D5/A        C5/G
eb|---------------------------|---------------------------|
Bb|---------------------------|---------------------------|
F#|-7--7-7/19-191919-19-17-17-|-16-16-16-17\14----14--16\-|
C#|---------------------------|---------------------------|
Ab|-5--5-5/17-171717-17-15-15-|-14-14-14-15\12----12--14\-|
Eb|---------------------------|---------------------------|

    G           C5/G            D5/A     C5/G
eb|---------------------------|------------------------/18|
Bb|---------------------------|---------------------------|
F#|-12-12-12-12-12-121212-1212|-14-14141415151515151515/15|
C#|---------------------------|---------------------------|
Ab|-10-10-10-10-10-101010-1010|-12-12121213131313131313---|
Eb|---------------------------|---------------------------|

    G               C5/G               D5/A            C5/G
eb|-181818181818181818181818181818/20|-20202020202020201818181818181818-|
Bb|----------------------------------|----------------------------------|
F#|-151515151515151515151515151515/17|-17171717171717171515151515151515-|
C#|----------------------------------|----------------------------------|
Ab|----------------------------------|----------------------------------|
Eb|----------------------------------|----------------------------------|
        (Oo , oo, oo,   oo, oo oo.)        (Oo , oo, oo,   oo, oo oo.)

    G               C5/G               D5/A            C5/G
eb|-18181818181818181818181818181818-|-2020202020202020202020-2020202020|
Bb|----------------------------------|----------------------------------|
F#|-15151515151515151515151515151515-|-1717171717171717171717b17bbbbbbbb|
C#|----------------------------------|----------------------------------|
Ab|----------------------------------|----------------------------------|
Eb|----------------------------------|----------------------------------|
        (Oo , oo, oo,   oo, oo oo.)        (Oo , oo, oo,   oo, oo oo.)

    G                 C                D               C
eb|-20-202020202020202020202020202020|-20202020202020202020202020202020-|
Bb|----------------------------------|----------------------------------|
F#|-17bbbbbbbbbbbbbbbbbbbbbbbbbbbbbbb|-bbbbbbbb--17bbb-19b--bbbbb-bbbbb-|
C#|----------------------------------|----------------------------------|
Ab|----------------------------------|----------------------------------|
Eb|----------------------------------|----------------------------------|
////////////////////////////////////////////////////////////////////////\
eb|----------------------------------|----------------------------------|
Bb|----------------------------------|----------------------------------|
F#|-4-4-4-4-4-4-4-4-4-5-5-5-5-5-5-5-5|-7-7-7-7-7-7-7-7-5-5-5-5-5-5-5-5-5|
C#|-5-5-5-5-5-5-5-5-5-5-5-5-5-5-5-5-5|-7-7-7-7-7-7-7-7-5-5-5-5-5-5-5-5-5|
Ab|-5-5-5-5-5-5-5-5-5-3-3-3-3-3-3-3-3|-5-5-5-5-5-5-5-5-3-3-3-3-3-3-3-3-3|
Eb|-3-3-3-3-3-3-3-3-3-3-3-3-3-3-3-3-3|-5-5-5-5-5-5-5-5-3-3-3-3-3-3-3-3-3|
       (Oo , oo, oo,   oo, oo oo.)        (Oo , oo, oo,   oo, oo oo.)

    G                 C5/G             D5/A            C5/G
eb|----------------------------------|----------------------------------|
Bb|----------------------------------|----------------------------------|
F#|-19b-b-b-bbbbbbbbbbbbbbbbbbbbbbbbb|-bbbbbbbbbbbbbbbb-bbbbbbbbb-r-----|
C#|----------------------------------|----------------------------------|
Ab|----------------------------------|----------------------------------|
Eb|----------------------------------|----------------------------------|
       (Oo , oo, oo,   oo, oo oo.)        (Oo , oo, oo,   oo, oo oo.)

    G     C5/G    D5/A  C5/G    G     C5/G    D5/A  C5/G        G
eb|-7-----12----|-14----12-18-|-15----------|-20----19--19-19-|------|------||
Bb|-x-----x-----|-x-----x-----|-------------|-----------------|------|------||
F#|-7-----12----|-14----12-15-|-12----------|-17----16--16-16-|-4----|-(4)--||
C#|-//----//----|-//----//-//-|-//----------|-//----//--------|-5----|-(5)--||
Ab|-//----//----|-//----//-//-|-//----------|-//----//--------|-5----|-(5)--||
Eb|-//----//----|-//----//-//-|-//----------|-//----//--------|-3----|-(3)--||
comments
print report bad tab
14 comments total. Showing first comments.
+3 reply
boxcarman wrote on November 20 2004, 12:00 am

This tab was very well done, one short of Say it ain't so, the best Weezer song

-2 reply
boxcarman wrote on November 20 2004, 12:00 am

This tab was very well done, one short of Say it ain't so, the best Weezer song

0 reply
rocknroll22 wrote on October 17 2005, 12:48 pm

^ i completely agree

I want to post or [tab]
guest
You may want to rate the tab now too:
select rating
Please do not post tabs as comments. Select "correction" instead!