Oops, an error
Loading. Please wait.

Undone The Sweater Song Tab

version 1
version 1

Whole song

Interactive

556,347 views 1,284 this week
14 commentsread comments
1 2 3 4 5
x 128
add to favorites
launch autoscroll
font size
0
reset
how to read this tab
guitar tuner
Autoscroll
slow
fast
+/-
esc
set tempo
stop
Help us to improve Ultimate-Guitar.com Take our survey!
×
Undone- The Sweater Song
as Performed by Weezer
Words and Music by Rivers Cuomo

4/4 Time
All Strings Tuned Down One Half Step
(All Chords Relative to Standard Tuning)


[Intro]

      (G6add#9)   
(Cmaj7[add#6])(D13)      (Cmaj7[add#6])
eb|-------------------------|-------------------------|
Bb|----------0-----------0--|----------0-----------0--|
F#|-------3-----------3-----|-------5-----------3-----|
C#|----2-----------2--------|----4-----------2--------|
Ab|-------------3-----------|-5-----------3-----------|
Eb|-3-----------------------|-------------------------|(Play 8 Times)


[Verse]

    G           C             D           C
eb|-3--3--3--3--0--0--0--0--|-2--2--2--2--0--0--0--0--|
Bb|-3--3--3--3--1--1--1--1--|-3--3--3--3--1--1--1--1--|
F#|-0--0--0--0--0--0--0--0--|-2--2--2--2--0--0--0--0--|
C#|-0--0--0--0--2--2--2--2--|-0--0--0--0--2--2--2--2--|
Ab|-2--2--2--2--3--3--3--3--|-------------3--3--3--3--|
Eb|-3--3--3--3--------------|-------------------------|
          I'm me,     me be,        God damn,   I  am.

G     C        D        C
I can sing and hear me, know me.


[Chorus]

    G           C5/G          D5/A        C5/G
eb|-------------------------|-------------------------|
Bb|-------------------------|-------------------------|
F#|-4--4--4--4--5--5--5--5--|-7--7--7--7--5--5--5--5--|
C#|-5--5--5--5--5--5--5--5--|-7--7--7--7--5--5--5--5--|
Ab|-5--5--5--5--3--3--3--3--|-5--5--5--5--3--3--3--3--|
Eb|-3--3--3--3--3--3--3--3--|-5--5--5--5--3--3--3--3--|
          If you want to destroy    my sweater,

G           C5/G      D5/A     C5/G
hold this thread as I walk away.

   (G6add#9)   (Cmaj7[add#6])(D13)       (Cmaj7[add#6])
eb|-------------------------|-------------------------|
Bb|----------0-----------0--|----------0-----------0--|
F#|-------3-----------3-----|-------5-----------3-----|
C#|----2-----------2--------|----4-----------2--------|
Ab|-------------3-----------|-5-----------3-----------|
Eb|-3-----------------------|-------------------------|(Play 4 Times)


[Verse]

G      C      D        C
Oh no, it go, it gone, bye bye.
G      C        D       C
Who I, I think, I sink, and I die.


[Chorus]

G      C5/G      D5/A            C5/G
If you want to destroy my sweater,
G           C5/G      D5/A     C5/G
hold this thread as I walk away.
G          C5/G        D5/A       C5/G
Watch me unravel, I'll soon be naked. Lyin' on the
G                   C5/G        D5/A        C5/G
floor. Lyin' on the floor, I've come undone.


[Guitar Solo]

    Bb              Eb/Bb              F/C              Eb/Bb
eb|----------------------------------|----------------------------------|
Bb|----------------------------------|-------------3-3b--r--------------|
F#|-3-3-3---3~~-3---3-3-3---3~~---3--|-3-3-3---3-5---------5-3\2h3------|
C#|-------6-------5-------5-----5----|-------5---------------------5-3--|
Ab|----------------------------------|----------------------------------|
Eb|----------------------------------|----------------------------------|
/////////////////////////////////////////-//-//-//-//////-//-//////-////////-///\
eb|--------------------------------------|------------------------------------------|
Bb|--------------------------------------|------------------------------------------|
F#|--------------------------------------|------------------------------------------|
C#|-------------------8-8-10-8-8---10-8--|-10-10-12-10-10--12-10-8-8-10-8-8---10-8--|
Ab|-8-8-10-8-8---10-8-6-6-6--6-6---6--6--|-8--8--8--8--8---8--8--6-6-6--6-6---6--6--|
Eb|-6-6-6--6-6---6--6--------------------|------------------------------------------|

    Bb              Eb/Bb              F/C              Eb/Bb
eb|----------------------------------|----------------------------------|
Bb|----------------------------------|---------------6b----r---3--------|
F#|------3-b-------5b-b-5---3--------|----5b---5---3---------------5-3~~|
C#|--3-5-------5-3--------------5-3--|----------------------------------|
Ab|----------------------------------|----------------------------------|
Eb|----------------------------------|----------------------------------|

    Bb              Eb/Bb                    F/C              Eb/Bb
eb|-------------8-8/10-10-10-11-11-13-13/15|-15/17-17/18-18/20-20-20-18-17-15-15-13----|
Bb|----------------------------------------|-------------------------------------------|
F#|~~~~~3---3/5-5-5/7--7--7/-8--8/-10-10/12|-12/14-14/15-15/17-17-17-15-14-12-12-10-10-|
C#|----------------------------------------|-------------------------------------------|
Ab|----------------------------------------|-------------------------------------------|
Eb|----------------------------------------|-------------------------------------------|

    Bb              Eb/Bb              F/C              Eb/Bb
eb|----------------------------------|--------15b~~~~15p13-18b~~~~~18-17|
Bb|-15----15-----15----15------------|-------x--------------------------|
F#|----12-----------12------121210~~~~~~~~~x----------------------------|
C#|----------12----------------------|----------------------------------|
Ab|----------------------------------|----------------------------------|
Eb|----------------------------------|----------------------------------|


[Chorus]

    G               C5/G               D5/A             C5/G
eb|----------------------------------|-------------------------------------------|
Bb|-15-----------~~~~~~~~~~~~~~~~~~~-|-------------13p12-------------------------|
F#|----------------------------------|----------------------14p12-14b-14b-14b-14b|
C#|----------------------------------|-------------------------------------------|
Ab|----------------------------------|-------------------------------------------|
Eb|----------------------------------|-------------------------------------------|
           If  you  want    to  de  -  stroy   my sweater, (Whoa, whoa, whoa.)

    G               C5/G
eb|----------------------------------|
Bb|----------------------------------|
F#|-12~~~~~~~~~~~~~~~~~~~~~~~~~~~~~~-|
C#|----------------------------------|
Ab|----------------------------------|
Eb|----------------------------------|
          hold  this thread  as  I

D5/A       C5/G
walk away. As I walk away.
G5         C5/G        D5/A         C5/G
Watch me unravel, I'll soon be naked. Lyin' on the
G                   C5/G        D5/A        C5/G
floor. Lyin' on the floor, I've come undone.

G      C5/G      D5/A            C5/G  Bb
If you want to destroy my sweater,
(I don't want to destroy your tanktop,)
G         C5/G        D5/A      C5/G  Bb       
Hold this thread as I walk away. As I walk away.
(Let's be friends as I walk away.)
G          C5/G        D5/A       C5/G Bb  
Watch me unravel, I'll soon be naked. Lyin' on the
(Hate to see you lyin' there in your superman skivies,)
G                   C5/G        D5/A        C5/G Bb
floor. Lyin' on the floor, I've come undone.


[Outro]

    G                C               D           C
eb|--------------------------------|---------------------------|
Bb|--------------------------------|---------------------------|
F#|-12-12-12-12-12--12-12-12--12-12|-11-11-9--9--9\7-----------|
C#|--------------------------------|---------------------------|
Ab|-10-10-10-10-10--10-10-10--10-10|-9--9--7--7--7\5-----------|
Eb|--------------------------------|---------------------------|

    G            C5/G                    D5/A       C5/G
eb|------------------------------------|---------------------------|
Bb|------------------------------------|---------------------------|
F#|-7-7-7/12-12-12-12-12-12-12-12-12-12|-11-11-9--9-9\7-7-7-7-7-7-7|
C#|------------------------------------|---------------------------|
Ab|-5-5-5/10-10-10-10-10-10-10-10-10-10|-9--9--7--7-7\5-5-5-5-5-5-5|
Eb|------------------------------------|---------------------------|

    G            C5/G              D5/A        C5/G
eb|------------------------------|---------------------------|
Bb|------------------------------|---------------------------|
F#|-7--7-7/19-19-19-19--19-17-17-|-16-16-16-17\14----14--16\-|
C#|------------------------------|---------------------------|
Ab|-5--5-5/17-17-17-17--17-15-15-|-14-14-14-15\12----12--14\-|
Eb|------------------------------|---------------------------|

    G             C5/G              D5/A        C5/G
eb|-------------------------------|---------------------------------/18|
Bb|-------------------------------|------------------------------------|
F#|-12-12-12-12-12-12-12-12--12-12|-14-14-14-14-15-15-15-15-15-15-15/15|
C#|-------------------------------|------------------------------------|
Ab|-10-10-10-10-10-10-10-10--10-10|-12-12-12-12-13-13-13-13-13-13-13---|
Eb|-------------------------------|------------------------------------|

    G                         C5/G                    D5/A                     C5/G
eb|-18-18-18-18-18-18-18-18--18-18-18-18-18-18-18/20|-20-20-20-20-20-20-20-20-18-18-18-18-18-18-18-18-|
Bb|-------------------------------------------------|-------------------------------------------------|
F#|-15-15-15-15-15-15-15-15--15-15-15-15-15-15-15/17|-17-17-17-17-17-17-17-17-15-15-15-15-15-15-15-15-|
C#|-------------------------------------------------|-------------------------------------------------|
Ab|-------------------------------------------------|-------------------------------------------------|
Eb|-------------------------------------------------|-------------------------------------------------|
        (Oo , oo, oo,   oo, oo oo.)                      (Oo , oo, oo,   oo, oo oo.)

    G                    C5/G                          D5/A                  C5/G
eb|-18-18-18-18-18-18-18-18-18-18-18-18-18-18-18-18-|-20-20-20-20-20-20-20-20-20-20-20-20-20-20-20-20|
Bb|-------------------------------------------------|------------------------------------------------|
F#|-15-15-15-15-15-15-15-15-15-15-15-15-15-15-15-15-|-17-17-17-17-17-17-17-17-17-17-17b17b17b17b17b17|
C#|-------------------------------------------------|------------------------------------------------|
Ab|-------------------------------------------------|------------------------------------------------|
Eb|-------------------------------------------------|------------------------------------------------|
        (Oo , oo, oo,   oo, oo oo.)                     (Oo , oo, oo,   oo, oo oo.)

    G                 C                D               C
eb|-20--20-20-20-20-20-20-20-20-20-20-20-20-20-20-20|-20-20-20-20-20-20-20-20-20-20-20-20-20-20-20-20-|
Bb|-------------------------------------------------|-------------------------------------------------|
F#|-17b-b--b--b--b--b--b--bb-b--b--b--b--b--b--b--b-|-b--b--b--b-----17-b--b--19-b---b-b--b---b-b--b--|
C#|-------------------------------------------------|-------------------------------------------------|
Ab|-------------------------------------------------|-------------------------------------------------|
Eb|-------------------------------------------------|-------------------------------------------------|
////////////////////////////////////////////////////////////////////////\
eb|----------------------------------|----------------------------------|
Bb|----------------------------------|----------------------------------|
F#|-4-4-4-4-4-4-4-4-4-5-5-5-5-5-5-5-5|-7-7-7-7-7-7-7-7-5-5-5-5-5-5-5-5-5|
C#|-5-5-5-5-5-5-5-5-5-5-5-5-5-5-5-5-5|-7-7-7-7-7-7-7-7-5-5-5-5-5-5-5-5-5|
Ab|-5-5-5-5-5-5-5-5-5-3-3-3-3-3-3-3-3|-5-5-5-5-5-5-5-5-3-3-3-3-3-3-3-3-3|
Eb|-3-3-3-3-3-3-3-3-3-3-3-3-3-3-3-3-3|-5-5-5-5-5-5-5-5-3-3-3-3-3-3-3-3-3|
       (Oo , oo, oo,   oo, oo oo.)        (Oo , oo, oo,   oo, oo oo.)

    G                 C5/G             D5/A            C5/G
eb|----------------------------------|----------------------------------|
Bb|----------------------------------|----------------------------------|
F#|-19b-b-b-bbbbbbbbbbbbbbbbbbbbbbbbb|-bbbbbbbbbbbbbbbb-bbbbbbbbb-r-----|
C#|----------------------------------|----------------------------------|
Ab|----------------------------------|----------------------------------|
Eb|----------------------------------|----------------------------------|
       (Oo , oo, oo,   oo, oo oo.)        (Oo , oo, oo,   oo, oo oo.)

    G     C5/G    D5/A  C5/G    G     C5/G    D5/A  C5/G        G
eb|-7-----12----|-14----12-18-|-15----------|-20----19--19-19-|------|------||
Bb|-x-----x-----|-x-----x-----|-------------|-----------------|------|------||
F#|-7-----12----|-14----12-15-|-12----------|-17----16--16-16-|-4----|-(4)--||
C#|-//----//----|-//----//-//-|-//----------|-//----//--------|-5----|-(5)--||
Ab|-//----//----|-//----//-//-|-//----------|-//----//--------|-5----|-(5)--||
Eb|-//----//----|-//----//-//-|-//----------|-//----//--------|-3----|-(3)--||


***********************************
| /   Slide up
| \   Slide down
| h   Hammer-on
| p   Pull-off
| ~   Vibrato
| x   Dead note
| b   Bend
***********************************
Suggest correction
comments
print report bad tab
14 comments total. Showing first comments. show 1 bad comment
+2 reply
boxcarman 10 Nov 20, 2004 12:00 AM

This tab was very well done, one short of Say it ain't so, the best Weezer song

0 reply
rocknroll22 203 Oct 17, 2005 12:48 PM

^ i completely agree

guest
You may want to rate the tab now too:
select rating
Wanna post a correction for this tab? Suggest correction