Oops, an error
Loading. Please wait.

Undone The Sweater Song Tab

version 4
version 4

Whole song

Interactive

4,722 views 6 this week
1 commentread comment
1 2 3 4 5
1 last vote to show rating
add to favorites
launch autoscroll
font size
0
reset
how to read this tab
guitar tuner
Autoscroll
slow
fast
+/-
esc
set tempo
stop
Help us to improve Ultimate-Guitar.com Take our survey!
×
Author
Undone the sweater song by weezer
tabbed by polly_monster
i figured it out so enjoy! and be careful with you sweaters

verse 1 and 2 (with ppl talking and guy saying "yeah")
drum part for intro
snare  |-------*-----**---*-----------
bass   |---*------*----*--------------
then just the standard beat
 drums intro then...
 |---------------------------
 |-----------0---------------
 |--------3------------------
 |-----2---------------------
 |---------------------------
 |--3------------------------

 |---------------------------
 |-----------0---------------
 |--------3------------------
 |-----2---------------------
 |---3-----------------------
 |---------------------------

 |---------------------------
 |-----------0---------------
 |--------5------------------
 |-----4---------------------
 |--5------------------------
 |---------------------------

 |---------------------------
 |-----------0---------------
 |--------3------------------
 |-----2---------------------
 |--3------------------------
 |---------------------------

lyrics:
oh me..baby
god damn...i am
i cant sing and
hear me ..know me

chorus:
G       C          D         C  
if you want to distroy my sweater (whoa whoa wooo)
G                C          D         C
just hold this thread as i waaaaaalk awaaaaaay

and the rest of the song is pretty much like that except for the lil
solo bit which i ahven't figured out yet.
good luck, have fun, and dont forget to put pants on in the morin'!
be careful with your sweaters...they tend to snag on nipple clips...
Suggest correction
Give kudos to tab author, rate the tab!
1 2 3 4 5
comments
print report bad tab
1 comment total.
0 reply
Danny Boy Green 10 Oct 08, 2002 12:00 AM

The chorus is:

e|---------------------------------
b|---------------------------------
g|---------7-7-7-7-9-9-9-9-7-7-7-7-
d|-7-7-7-7-7-7-7-7-9-9-9-9-7-7-7-7-
a|-7-7-7-7-5-5-5-5-7-7-7-7-5-5-5-5-
e|-5-5-5-5-5-5-5-5-7-7-7-7-5-5-5-5-

sorry its not much of a correctin but atleast it helps

guest
You may want to rate the tab now too:
select rating
Wanna post a correction for this tab? Suggest correction