Oops, an error
Loading. Please wait.

Harto De Todo chords

17 views 1 this week
no commentswrite comment
1 2 3 4 5
3 more votes to show rating
add to favorites
×
Save as Personal and add changes to this tab that will be seen only by you. Learn more ›
×
You can save this tab as Personal to edit and correct it or add notes. All changes will be seen only by you. Learn more »
launch autoscroll
font size
0
reset
transpose
0
reset
display chords
guitar tuner
edit
Autoscroll
slow
fast
+/-
esc
set tempo
stop
Strumming
There is no strumming pattern for this song yet. and get +5 IQ
weichafe - harto de todo:
recomiendo que este tema lo toque con afinacion en
D (D,A,D,F#,A,D) DE 6A1.. Por una cuestion de calibracion
de la guitarra....pero yo transporte los solos o riff a la
afinacion normal.... eso si dejando la 6ta cuerda en RE...
porque la tonalidad lo exije.. ahora ustedes deciden como tocan
el tema, yo solo doy una idea, aunque no es recomendable
tener la 6ta cuerda 1 tono abajo, por el bienestar de
instrumento...(eso no creo que les importe mucho, pero a mi si).
ya y eso no mas.... chau.


-------HARTO DE TODO Y DE TODOS---------


Dm  (Dm sus2)


Dm                         Fm
Aquí estoy con mis amigos, y aun tenemos la esperanza
Bb                         Ab  G
Que el cielo rompa y caiga, y sacuda al olvido

Dm                         Fm
Los malditos los desechos, los que habitan en desprecio
Bb                         Ab  G
Comen sobras en el suelo, y vomitan su exilio


(riff 1)                         Dm
Respiro y me desligo dentro de esta basura
(riff 2)                         Dm
Tu vida plana y cautiva, me aburre tanta mediocridad

(riff 1)
e --------------------------------------------------
b --------------------------------------------------
g --------------------------------------------------
d --------------------------------------------------
a ---8-7-8-7-8--10--8-7-5-3-2-3-5-0-----------------
D)---8-7-8-7-8--10--8-7-5-3-2-3-5-0-----------------

(riff 2)
e --------------------------------------------------
b --------------------------------------------------
g --------------------------------------------------
d --------------------------------------------------
a ---8--8-7-8-7-8--8-8--10--------------------------
D)---8--8-7-8-7-8--8-8--10--------------------------

pte)
e ---5-----------3-3/4--4/2---------------------------------
b -----6-5--5-6---------------------------------------------
g --------------------------5-------------5--8-5------------
d ----------------------------5-6-5-6-6/8--------9-5--------
a ---------------------------------------------------5------
D)----------------------------------------------------------


Dm                         Fm
Junte todos mis recuerdos, fotos mías y destierros
Bb                         Ab  G
Cosas buenas sin destino, y lo que aun no he vivido

Dm                         Fm
Las paredes de mi pieza, son mi historia y mis promesas
Bb                         Ab  G
Esta llena de respiros, recuerda que soy un niño


(riff 1)                         Dm
Respiro y me desligo dentro de esta basura
(riff 2)                         Dm
Tu vida plana y cautiva, me aburre tanta mediocridad
(riff 1)                         Dm
Los necios me lo dicen, imágenes de mentira
(riff 2)
Los pendejos se alucinan


fin) Dm, Fm, Bb, Ab, G

chello
e --------------------------------------------------
b --------------------------------------------------
g --------------------------------------------------(rep. const)
d --------------------------------------------------
a ------------------3-5-1--3-5--8-6--5--10----------
D)--0--2--3--5--6-----------------------------------


........esto es para mi abuelo.

            
            
Suggest correction
Creating personal tab
Creating personal tab
You can edit any tab online and save it as your Personal.

You can edit, replace or remove any tab part or add personal notes – all changes will be seen only by you.

Personal tabs can be accessed anytime from any device, even offline.
Learn more »
Give kudos to tab author, rate the tab!
1 2 3 4 5
comments
print report bad tab
guest
Wanna post a correction for this tab? Suggest correction