Oops, an error
Loading. Please wait.

Ripio Y Soledad tab

119 views 1 this week
no commentswrite comment
1 2 3 4 5
3 more votes to show rating
add to favorites
×
Save as Personal and add changes to this tab that will be seen only by you. Learn more ›
×
You can save this tab as Personal to edit and correct it or add notes. All changes will be seen only by you. Learn more »
launch autoscroll
font size
0
reset
how to read this tab
guitar tuner
edit
Autoscroll
slow
fast
+/-
esc
set tempo
stop
Inicio hasta cuando canta!
E------------------------------------
B------------------------------------
G------------------------------------
D--5-3-0----1---0---1-0--------------  X  7
A--5-3-0----1---0---1-0--------------
D--5-3-0----1---0---1-0--------------

Cm                       Cm
Poco de hoy me pertenece, mas tristeza en libertad. (fig.1)
Cm                      Cm
llora sigue adormecido, llora, llora sobre mi. (fig.1)
Cm                     Cm
rajame luego los ojos , que solo quiero escuchar. (fig.1)
Cm                     Cm
rajame luego los ojos, ripio y soledad. (fig.2)


(fig.1)
E------------------------------------
B------------------------------------
G------------------------------------
D------------------------------------
A--0----3-5---0-1--------------------
D--0----3-5---0-1--------------------

(fig.2)
E------------------------------------
B------------------------------------
G------------------------------------
D------------------------------------
A--0----3-5---0-1---2-3--0-1---------
D--0----3-5---0-1---2-3--0-1---------


----CORO---
E------------------------------------
B------------------------------------
G------------------------------------
D--5-3-0----1---0---1-0--------------
A--5-3-0----1---0---1-0--------------
D--5-3-0----1---0---1-0--------------
Creo que no voy a comprar tus frases de viejo limpio,
espejo de dios, espejo de dios..


Cm                       Cm
Prende el acondicionado, que no puedo respirar. (fig.1)
Cm                      Cm
caen todas las ventanas, basureros sin limpiar. (fig.1)
Cm                          Cm
quema el rio, quema el rio, subiremos algo mas. (fig.1)
Cm                  D#             Fm
subiremos algo mas, subiremos mas, tendremos que volar. (fig.2)


---- CORO!---


"PUNTEo"

E--------------  X3
B--6-----------
G--9----------- levantan moderadamente esta cuerda asta llegar al tono de
D--------------     de la cuerda de abajo (F)
A--------------
D--------------

E--------------  X3
B--8-----------
G--11---------- levantan moderadamente esta cuerda asta llegar al tono de
D--------------    de la cuerda de abajo (G)
A--------------
D--------------


---como el inicio---y---coro--

E------------------------------------
B------------------------------------
G------------------------------------
D--5-3-0----1---0---1-0--------------  luego canta... y sigue...
A--5-3-0----1---0---1-0--------------
D--5-3-0----1---0---1-0--------------


ultimo: espejos de dios! y empieza asi:

E------------------------------------
B------------------------------------
G--5---------------------------------
D--5----5-3-0---1---0---1-0---------- x 4
A--3----5-3-0---1---0---1-0----------
D-------5-3-0---1---0---1-0----------
  Ripio y soledad!.......... espejos de diosss!!!


Final!

E---------------------------------
B---------------------------------
G---------------------------------
D--5-3-0---1--0--1-0--------------  x 4
A--5-3-0---1--0--1-0--------------
D--5-3-0---1--0--1-0--------------

            
            
Suggest correction
Creating personal tab
Creating personal tab
You can edit any tab online and save it as your Personal.

You can edit, replace or remove any tab part or add personal notes – all changes will be seen only by you.

Personal tabs can be accessed anytime from any device, even offline.
Learn more »
Give kudos to tab author, rate the tab!
1 2 3 4 5
comments
print report bad tab
guest
Wanna post a correction for this tab? Suggest correction